PrimaNota.ru - самый крупный в мире бесплатный архив песенных текстов, аккордов, табулатур и нот


Josh Clemons - What Child Is This - таба, видео

Регистрация Запомнить меня
Войти через:  Facebook Google Twitter Vk Yandex Mail.ru

Josh Clemons - What Child Is This - таба, видео

Печатать
Просмотров: 128
Уроки эстрадного вокала в Санкт-Петербурге
From: Unordinary 
Subject: TAB: What Child Is This by Josh Clemons

/	                   What Child Is This                   \
	  /      	         By: Josh Clemons *Darf*                 \
         /                         darf@geocities.com
\

PART 1
|-------------------------------------------------------------------------------|
|--------------0---1---0--------------------------------------------------------|
|------0---2---------------2------------------0---------------------------------|
|--2--------------------------4---0---2---4-------2---2---1---2---4---1---------|
|-------------------------------------------------------------------------2-----|
|-------------------------------------------------------------------------------|


PART 2
|-------------------------------------------------------------------------------|
|--------------0---1---0--------------------------------------------------------|
|------0---2---------------2-------------------0--------------------------------|
|--2---------------------------4---0---2---4-------4---2---1-------1---2---2---2|
|--------------------------------------------------------------4----------------|
|-------------------------------------------------------------------------------|


PART 3
|-------------------------------------------------------------------------------|
|--3---3---2---0----------------------------------------------------------------|
|------------------2-------------------0----------------------------------------|
|----------------------4---0---2---4-------2---2---1---2---4---1----------------|
|------------------------------------------------------------------2------------|
|-------------------------------------------------------------------------------|


PART 4
|-------------------------------------------------------------------------------|
|--3---3---2---0----------------------------------------------------------------|
|------------------2-------------------0----------------------------------------|
|----------------------4---0---2---4-------4---2---1-------1---2---2---2---2----|
|------------------------------------------------------4------------------------|
|-------------------------------------------------------------------------------|

         \                     THAT ALL
FOLKS......                        /
          \      HAVE A MERRY CHRISTMAS AND HAPPY NEW
YEARS......         /
	   \								 /
Добавлено: 09.04.2012
Другие материалы по этой песне:
  • Аккорды и текст

Страница создана 10.03.2012
http://primanota.ru/josh-clemons/what-child-is-this-chords.htm
Привет, Гость.
Предлагаем пройти революционный курс по гитаре.
Подарок от PrimaNota.Ru, забирай!