PrimaNota.ru - самый крупный в мире бесплатный архив песенных текстов, аккордов, табулатур и нот


Josh Clayton-felt - Already Gone - таба, видео

Регистрация Запомнить меня
Войти через:  Facebook Google Twitter Vk Yandex Mail.ru

Josh Clayton-felt - Already Gone - таба, видео

Печатать
Просмотров: 61
Already Gone
-------------------
Arist: Josh Clayton-Felt
Album:Spirit Touches Ground
INFO: joshclayton.com
Tabed By: Nick H Johnson
(with kind help of Charles Wayne Gibson)
--------------------------------------------
NOTES & TERMS:
-I have tried to include rudimentary strumming notation in the form of
arrows ( /\ : \/ ) below the 'E'-string line in the tab indicating the
direction of the strum.  These are ONLY a 'guideline' and how I play
it.  Please note that the arrows are pointing ACROSS the neck, i.e. an
arrow pointing toward the TOP of your computer screen actually indicates
a DOWN strum on your guitar.
-For ease of reading I have used 'O' only to indicate open picking.  In
chords unless a sting has an 'X' on it; assume it is played OPEN.
-'l' = 'lift-off' to quickly deaden a chord.
-'( )' = optional use of a note, i.e "I think?" Use to your taste.
-Josh Clayton rocks the house
       

INTRO/VERSE 1:
e---4-----------4-----------4-----------4-----------5-----
B-------O-----------O-----------O-----------O-------------
G-----------1-----------1-----------1-----------1---------
D---------------------------------------------------------
A---------------------------------------------------O-----
E---O-----------------------------------------------------
 PLAY 2 TIMES>

THEN:
e---4-----------4-----------4-----------4-----------2pO*------------O-|
B-------O-----------O-----------O-----------O--------------O----------|
G-----------1-----------1-----------1-----------1--------------2p1----|
D---------------------------------------------------------------------|
A---------------------------------------------------O-----------------|
E---O-----------------------------------------------------------------|
(*'pluck-off' more than 'pull-off')
 PLAY THROUGH AGAIN FROM 'INTRO/VERSE 1:'>

THEN:
BRIDGE:
   E>>>>>>>>>>>>>>>>>>>>>>>>>>>>>>>>>>>>>>>>>>>>>>>>>>>>>>>>>>>>>
e-----------------2----2----2---------2----------------------------|f
B-----------------------------------------------2------------------|i b
G------1----1-----1----1----1----1----1----1----1----1----1----1---|r a
D------2----2-----2----2----2----2----2----2----2----2----2----2---|s r
A------2----2-----2----2----2----2----2----2----2----2----2----2---|t
E------------------------------------------------------------------|  
strm[  /\  /\    \/   /\   \/   /\   \/   \/   \/   \/   /\   \/  ]

F#sus47>>>>>>>>>>>>>>>>>>>>>>>>>>>>>>>>>>>>>>>>>>>>>>>>>>>>>>>>>
e------------------4-----------------------------------------------|s
B------------------------------4-----------4-----------------------|e b
G------X-----X-----X-----X-----X-----X-----X-----X-----X-----X-----|c a
D------4-----4-----4-----4-----4-----4-----4-----4-----4-----4-----|o r
A------4-----4-----4-----4-----4-----4-----4-----4-----4-----4-----|n
E------2-----2-----2-----2-----2-----2-----2-----2-----2-----2-----|d
strm[ /\    /\    \/    \/    \/    \/    \/    \/    /\    \/   ]

 PLAY 2 TIMES WITH THE FOLLOWING BAR REPLACING THE SECOND BAR ON THE
SECOND TIME THROUGH>

e------------------4----------------------------------------------|f
B------------------------------4----------------------------------|o b
G------X-----X-----X-----X-----X----------------------------------|l a
D------4-----4-----4-----4-----4----------------------------------|l r
A------4-----4-----4-----4-----4----------------------------------|o
E------2-----2-----2-----2-----2----------------------------------|w
strm[ /\    /\    \/    \/    \/   ]  LET IT FADE OUT>>>>>>>>>>>>  i
                                                                   n
THEN:                                                              g
VERSE 2:
  E>>>>>>>>>>>>>>>>>>>>>>>>>>>>>>>>>>>>>>>>>>>>>>>>>>>>>>>
e--------------0--------------------------------------------
B-----------------------------------------------------------
G-----1---1-------2p1-------1----1---1----------1---1-------
D-----2---2------------2----2----X---X----------2---X-------
A-----2---2-----------------2----X---X------2---2---X-------
E--------------------------------X---X--------------X----O--
strm[/\  /\                /\   \/  \/         /\  \/     ]
 PLAY ONCE>

THEN:
  E>>>>>>>>>>>>>>>>>>>>>>>>>>>>>>>>>>>>>>>>>>>>>>>>>>>>>
e---------0-------------------------------------------------|
B-----------------------------------------------------------|
G-----1-------2p1----------1------1---1---------1---1-------|
D-----2-------------2------2------X---X---------2---X-------|
A-----2--------------------2------X---X-----2---2---X-------|
E---------------------------------X---X-------------X----O--|
strm[/\                   /\     \/  \/        /\  \/     ]
 PLAY 2 TIMES>

THEN:
  E>>>>>>>>>>>>>>>>>>>>>>>>>>>>>
e-------------------------------|
B-------------------------------|
G-----1---1---1--------1--------|
D-----2---2------------2--------|
A-----2---2------------2--------|
E-------------------------------|
strm[/\  \/           /\     ] 
 REAPEAT FROM 'VERSE 2:'>

THEN:
REFRAIN:
    F#>>>>>>>>>>>>>>>>>>>>>>>>>>>>>>>>>>>>>>>>>>>>>>>>>
e------2-----2l-----2----2------2----2----2----2----2------f b
B------2-----2l-----2----2------2----2----2----2----2------i a
G------2-----2l-----2----2------2----2----2----2----2------r r
D------4-----4l-----4----4------4----4----4----4----4------s
A------4------------4---(4)----(4)--(4)--(4)---4---(4)-----t
E------2------------2--------------------------2-----------
strm[ /\     \/    /\   \/     \/   \/   \/   /\   \/  ] 

    A>>>>>>>>>>>>>>>>>>>>>>>>>>>>>>>>>>>>>>>>>>>>>>>>>>>>>>>>>>>
e-------------------------------------------------------------------s b
B------2------2-----------2-----2------2------2----2----2----2------e a
G------2------2-----------2-----2------2------2----2----2----2------c r
D------2-----(2)---2h4p2--2-----2------2------2----2----2----2------o
A-------------X-----------------X------------------X---------X------n
E-------------X-----------------X------------------X---------X------d
strm[ /\     \/          /\    \/     /\     /\   \/   /\   \/  ] 

    E>>>>>>>>>>>>>>>>>>>>>>>>>>>>>>>>>>>>>>>>>>>>>>>>>>>>>>>>>>>>
e--------------------------------2----2----2------------------------|t b
B-------------------------------------------------------------------|h a
G------1----1-----1----1----1----1----1----1----1----1----1----1----|i r
D------2----2-----2----2----2----2----2----2----2----2----2----2----|r
A------2----2-----2----2----2----2----2----2----2----2----2----2----|d
E-------------------------------------------------------------------|
strm[ /\   /\    \/   \/   /\   \/   \/   /\   \/   \/   /\   \/   ]

 PLAY 2 TIMES WITH THE FOLLOWING BAR REPLACING THE THIRD BAR ON THE
SECOND TIME THROUGH>

   C>>>>>>>>>>>>>>>>>>>>>>>>>>>>>>>>>>  Am7>>>>>>>>>
e-----------------------------------------------------f b
B-----1-----1-----1---1---1-----1---1----1----1---1---o a
G-----------------------------------------------------l r
D-----2-----2-----2---2---2-----2---2----2----2---2---l
A-----3-----3-----3---3---3-----3---3-----------------o
E----------------------------------------X----X---X---w
STRM[/\    \/    \/  /\  \/    \/  /\   \/   \/  /\  ]i
                                                      n
STRAIGHT INTO:                                        g
BRIDGE

THEN:
VERSE 3 (SAME AS VERSE 2)

THEN
REFRAIN

THEN:
BRIDGE

THEN:
OUTRO/VERSE 4 (SAME AS INTRO/VERSE 1)

Comments or questions?
I'd be glad to hear them at nick(at)ambppct.org
Josh's Albums are available from joshclayton.com
-- 
     
Добавлено: 17.11.2013
Вам также может быть интересно:
Другие материалы по этой песне:
  • Аккорды и текст

Страница создана 10.08.2013
http://primanota.ru/josh-clayton-felt/already-gone-chords.htm
Привет, Гость.
Предлагаем пройти революционный курс по гитаре.
Подарок от PrimaNota.Ru, забирай!