PrimaNota.ru - самый крупный в мире бесплатный архив песенных текстов, аккордов, табулатур и нот


Josh Abbott Band - Brushy Creek - таба, видео

Регистрация Запомнить меня
Войти через:  Facebook Google Twitter Vk Yandex Mail.ru

Josh Abbott Band - Brushy Creek - таба, видео

Печатать
Просмотров: 124
Song: Brushy Creek
Album: She's Like Texas
Band: Josh Abbott Band
No Capo
Tuning: Standard
I figured this out as I was writing it, so if you notice something is wrong please 
comment and I will correct it.
This song is somewhere between Novice and Intermediate, I have been playing for 
about three years and have no trouble playing it.
Tabs by: Parker Mathews


================================================================
Intro:
e|--------------0------------------------0---------------------|
B|-------------------------------------------------------------|
G|----------0h1-----2-0--------------0h1-----2-0---------------|
D|----------------------2p0----------------------2p0-----------|
A|-------------------------------------------------------------|
E|--3b---0-------------------3b---0----------------------------|

================================================================
Verse 1
       I Gotta Guitar...
e|--------------0------------------------0---------------------|
B|-------------------------------------------------------------|
G|----------0h1-----2-0--------------0h1-----2-0---------------|
D|----------------------2p0----------------------2p0-----------|
A|-------------------------------------------------------------|
E|--3b---0-------------------3b---0----------------------------|

          And have us...
e|--------------0---3-3-3p0--------------0---------------------|
B|----------0h3------------------------------------------------|
G|-----------------------------------0h1-----2-0---------------|
D|-----------------------------------------------2p0-----------|
A|-------------------------------------------------------------|
E|--3b---0-------------------3b---0----------------------------|

  There ain't nothin'...
e|-----------2-----2-----2-----2-----7-----5-----3-----2-----0-|
B|-----------4-----4-----4-----4-----7-----5-----3-----2-----0-|
G|-----------4-----4-----4-----4-----8-----6-----4-----3-----1-|
D|-----------------------------------9-----7-----5-----4-----2-|
A|--------2-----2-----2-----2--------9-----7-----5-----4-----2-|
E|--3b-------------------------------7-----5-----3-----2-----0-|

================================================================
Play Intro again
================================================================
Verse 2
       Well Your Grandparents...
e|--------------0------------------------0---------------------|
B|-------------------------------------------------------------|
G|----------0h1-----2-0--------------0h1-----2-0---------------|
D|----------------------2p0----------------------2p0-----------|
A|-------------------------------------------------------------|
E|--3b---0-------------------3b---0----------------------------|

          And lived a good life...
e|--------------0---3-3-3p0--------------0---------------------|
B|----------0h3------------------------------------------------|
G|-----------------------------------0h1-----2-0---------------|
D|-----------------------------------------------2p0-----------|
A|-------------------------------------------------------------|
E|--3b---0-------------------3b---0----------------------------|

  Now they're lookin' down...
e|-----------2-----2-----2-----2-----7-----5-----3-----2-----0-|
B|-----------4-----4-----4-----4-----7-----5-----3-----2-----0-|
G|-----------4-----4-----4-----4-----8-----6-----4-----3-----1-|
D|-----------------------------------9-----7-----5-----4-----2-|
A|--------2-----2-----2-----2--------9-----7-----5-----4-----2-|
E|--3b-------------------------------7-----5-----3-----2-----0-|

================================================================
Play Intro Again
================================================================
Chorus
      Ohhh there's Roundrock...     We Can Go there...
e|-------------2-----2-----2-----2-----0-----0-----0-----0-----|
B|-------------4-----4-----4-----4-----2-----2-----0-----0-----|
G|-------------4-----4-----4-----4-----2-----2-----1-----1-----|
D|-------------------------------------------------------------|
A|----------2-----2-----2-----2-----0-----0--------------------|
E|----------------------------------------------0-----0--------|

     Hike on up...             And Maybe Hold Hands...
e|----------2-----2-----2-----2-----0-----0-----0-----0--------|
B|----------4-----4-----4-----4-----2-----2-----2-----0--------|
G|----------4-----4-----4-----4-----2-----2-----2-----1--------|
D|-------------------------------------------------------------|
A|-------2-----2-----2-----2-----0-----0-----0-----------------|
E|-------------------------------------------------0-----------|

            1             2            1   2   3   4....
e|--------------0------------------------0---------------------|
B|-------------------------------------------------------------|
G|----------0h1-----2-0--------------0h1-----2-0---------------|
D|----------------------2p0----------------------2p0-----------|
A|-------------------------------------------------------------|
E|--3b---0-------------------3b---0----------------------------|

================================================================
For solo just play the first two lines of verse
================================================================

Verse 3

       A place to think...
e|--------------0------------------------0---------------------|
B|-------------------------------------------------------------|
G|----------0h1-----2-0--------------0h1-----2-0---------------|
D|----------------------2p0----------------------2p0-----------|
A|-------------------------------------------------------------|
E|--3b---0-------------------3b---0----------------------------|

          In this good life...
e|--------------0---3-3-3p0--------------0---------------------|
B|----------0h3------------------------------------------------|
G|-----------------------------------0h1-----2-0---------------|
D|-----------------------------------------------2p0-----------|
A|-------------------------------------------------------------|
E|--3b---0-------------------3b---0----------------------------|

  There ain't nothin'...
e|-----------2-----2-----2-----2-----7-----5-----3-----2-----0-|
B|-----------4-----4-----4-----4-----7-----5-----3-----2-----0-|
G|-----------4-----4-----4-----4-----8-----6-----4-----3-----1-|
D|-----------------------------------9-----7-----5-----4-----2-|
A|--------2-----2-----2-----2--------9-----7-----5-----4-----2-|
E|--3b-------------------------------7-----5-----3-----2-----0-|

================================================================
Play Intro Again
================================================================
Play Chorus Again
================================================================
For Solo 2 Just play Intro
================================================================

Verse 4
      I Gotta Guitar...
e|--------------0------------------------0---------------------|
B|-------------------------------------------------------------|
G|----------0h1-----2-0--------------0h1-----2-0---------------|
D|----------------------2p0----------------------2p0-----------|
A|-------------------------------------------------------------|
E|--3b---0-------------------3b---0----------------------------|

          And have us...
e|--------------0---3-3-3p0--------------0---------------------|
B|----------0h3------------------------------------------------|
G|-----------------------------------0h1-----2-0---------------|
D|-----------------------------------------------2p0-----------|
A|-------------------------------------------------------------|
E|--3b---0-------------------3b---0----------------------------|

  There ain't nothin'...
e|-----------2-----2-----2-----2-----7-----5-----3-----2-----0-|
B|-----------4-----4-----4-----4-----7-----5-----3-----2-----0-|
G|-----------4-----4-----4-----4-----8-----6-----4-----3-----1-|
D|-----------------------------------9-----7-----5-----4-----2-|
A|--------2-----2-----2-----2--------9-----7-----5-----4-----2-|
E|--3b-------------------------------7-----5-----3-----2-----0-|

================================================================
Outro

  I Said There ain't nothin'...
e|-----------2-----2-----2-----2-----7-----5-----3-----2-----0-|
B|-----------4-----4-----4-----4-----7-----5-----3-----2-----0-|
G|-----------4-----4-----4-----4-----8-----6-----4-----3-----1-|
D|-----------------------------------9-----7-----5-----4-----2-|
A|--------2-----2-----2-----2--------9-----7-----5-----4-----2-|
E|--3b-------------------------------7-----5-----3-----2-----0-|

    2x
e|--------------0------------------------0---------------------|
B|-------------------------------------------------------------|
G|----------0h1-----2-0--------------0h1-----2-0---------------|
D|----------------------2p0----------------------2p0-----------|
A|-------------------------------------------------------------|
E|--3b---0-------------------3b---0----------------------------|

    Sharp Ending
e|-------------------------------------------------------------|
B|-------------------------------------------------------------|
G|-------------------------------------------------------------|
D|-------------------------------------------------------------|
A|-------------------------------------------------------------|
E|--3b---0-----------------------------------------------------|

================================================================

Please Rate or Comment
Tabs by: Parker Mathews
Добавлено: 30.11.2013
Другие материалы по этой песне:
  • Аккорды и текст

Страница создана 30.11.2013
http://primanota.ru/josh-abbott-band/brushy-creek-chords.htm
Привет, Гость.
Предлагаем пройти революционный курс по гитаре.
Подарок от PrimaNota.Ru, забирай!