PrimaNota.ru - самый крупный в мире бесплатный архив песенных текстов, аккордов, табулатур и нот


Joseph Scriven - What A Friend We Have In Jesus - таба, видео

Регистрация Запомнить меня
Войти через:  Facebook Google Twitter Vk Yandex Mail.ru

Joseph Scriven - What A Friend We Have In Jesus - таба, видео

Печатать
Просмотров: 76
Уроки эстрадного вокала в Санкт-Петербурге
-------------------------------------------------------------------------------
                             SONG NAME - Band Name
-------------------------------------------------------------------------------
Tabbed by:
E-mail:
Key of F
Tuning:E-A-D-G-B-e

e|---------------------------------------------------------------------------|
B|--1---1----3----1---------------------------------1---------------1--1-----|
G|--------------------2---------------------2--------------2---0-------------|
D|--3---3----3----3---3---3--3--0------3--------3---3------3---2----3--3-----|
A|------------------------3--5--1--3---3----3---3----------------------------|
E|---------------------------------------------------------------------------|
   what a friend we have in Jesus all our sins and griefs to bear what a 
e|---------------------------------------------------------------------------|
B|--3--1---------------------------------------------------------------------|
G|--------2-----------------2-----0----------------0--------0---2---3-0------|
D|--3--3--3---3--3-0-----3--3--------3---2---3-----2--4---=-2---3---5-2------|
A|------------3--5-1---3-3--------3--3---3---3--------6----------------------|
E|---------------------5-----------------------------------------------------|
   privilege to carry everything to God in prayer oh what peace we often 
e|----------------------------------------------------------------------------|
B|-----1---3----3---1--------------------1---1---3---1------------------------|
G|--2-------------------2---3---2---0-------------------2------------------2--|
D|--3--3---3----3---3---3---5---3---2----3---3---3---3--3--3--3--0------3--3--|
A|---------------------------------------------------------3--5--1---3--3-----|
E|----------------------------------------------------------------------------|
   forfeit oh what needles pain we bear all because we do not carry everything
e|---------------------------------------------------------------------------|
B|---------------------------------------------------------------------------|
G|-0-------------------------------------------------------------------------|
D|-----3---2---3-------------------------------------------------------------|
A|-3---3---3---3-------------------------------------------------------------|
E|---------------------------------------------------------------------------|
   to God in prayer



************************************

| /   slide up
| \   slide down
| h   hammer-on
| p   pull-off
| ~   vibrato
| +   harmonic
| x   Mute note
| b   Bend
| pb  Pre-bend
| br  Bend release
| pbr Pre-bend release
| brb Bend release bend

************************************
Добавлено: 30.04.2016
Другие материалы по этой песне:
  • Аккорды и текст

Страница создана 30.04.2016
http://primanota.ru/joseph-scriven/what-a-friend-we-have-in-jesus-chords.htm
Привет, Гость.
Предлагаем пройти революционный курс по гитаре.
Подарок от PrimaNota.Ru, забирай!