PrimaNota.ru - самый крупный в мире бесплатный архив песенных текстов, аккордов, табулатур и нот


Joseph Sabolick - Come Just As You Are - таба, видео

Регистрация Запомнить меня
Войти через:  Facebook Google Twitter Vk Yandex Mail.ru

Joseph Sabolick - Come Just As You Are - таба, видео

Печатать
Просмотров: 51
-------------------------------------------------------------------------------
                    come just as you are - Joseph Sabolick
-------------------------------------------------------------------------------
Tabbed by:
E-mail:
key of F
Tuning:E-A-D-G-B-e

e|---------------------------------------------------------------------------|
B|--------------1-----------------------------------------1------------------|
G|-2--------0---0--------2-------0--2----0----2--------0--0------------------|
D|-3-----3----------3----3---3----------------3----3----------3----0---2---3-|
A|---------------------------------------------------------------------------|
E|---------------------------------------------------------------------------|
  come just as you are hear the spirit call come just as you are come and see
e|---------------------------------------------------------------------------|
B|---------------------------------------------------------------------------|
G|-----------------------------0-2-0-----------2-0---------------------------|
D|------2---3----0---2----3------3-------------3---2-3-----------------------|
A|--3-------3----------------------------------------3-----------------------|
E|---------------------------------------------------------------------------|
  come receive come and live forever (repeat) evermore  
e|---------------------------------------------------------------------------|
B|--------------1--------------------------1-------------------1-------------|
G|--------3---3----3-2-2-------3-------3------3----3----2---3------3-2-------|
D|--------3---3----3---3--3----3-------3------3----3--------3------3-----3---|
A|--------5---5----3---3-------5-------5------3----5--------5------3---------|
E|---------------------------------------------------------------------------|
bridge: life everlasting and strength for to day taste the living water and
e|---------------------------------------------------------------------------|
B|---------------------------------------------------------------------------|
G|-0--2--3-----2--0----------------------------------------------------------|
D|-1--3--5-----3-------------------------------------------------------------|
A|-1--3--------3-------------------------------------------------------------|
E|---------------------------------------------------------------------------|
  never thirst again 


************************************

| /   slide up
| \   slide down
| h   hammer-on
| p   pull-off
| ~   vibrato
| +   harmonic
| x   Mute note
| b   Bend
| pb  Pre-bend
| br  Bend release
| pbr Pre-bend release
| brb Bend release bend

************************************
Добавлено: 10.05.2016
Другие материалы по этой песне:
  • Аккорды и текст

Страница создана 10.05.2016
http://primanota.ru/joseph-sabolick/come-just-as-you-are-chords.htm
Привет, Гость.
Предлагаем пройти революционный курс по гитаре.
Подарок от PrimaNota.Ru, забирай!