PrimaNota.ru - самый крупный в мире бесплатный архив песенных текстов, аккордов, табулатур и нот


Joseph Kuffner - Arietta - таба, видео

Регистрация Запомнить меня
Войти через:  Facebook Google Twitter Vk Yandex Mail.ru

Joseph Kuffner - Arietta - таба, видео

Печатать
Просмотров: 207
Artist : Joseph Kuffner
Transcribed by : Kevin J. Manges (fretmeister@bigfoot.com)
Downloaded From: http://members.tripod.com/~Braumeister/index.htm
         Notes : This is best viewed in Courier New, 10pt font.
     Difficulty: Very easy
           Date: 29 DEC 02 1430
================================================================================
                                Arietta

Transcribed by Kevin Manges                                  J. Kuffner 

                                                       
E||------------------|----------------|-----------------|----------------|
B||---2----3----5----|--5--------3----|--0----2----3----|--3--------2----|
G||*--2----4----6----|--6--------4----|--1----2----4----|--4--------2----|
D||*-----------------|----------------|-----------------|----------------|
A||---0--------------|----------------|-----------------|--0-------------|
E||------------------|--0-------------|--0--------------|----------------|
           2                                                          
           3                                                           


                   D chord                                                       
|-----------------|--2----0-----------|-----------------|----------------||
|--2----3----5----|--3-------3--2--0--|--2----3----0----|----------------||
|--2----4----6----|--2----------------|--2----4----1----|--2------------*||
|-----------------|--0----------------|-----------------|---------------*||
|--0--------------|-------------------|-----------------|--0-------------||
|-----------------|-------------------|--0---------0----|----------------||
        2    0       2                                                  
        3    2       3                                                   
                     1                                                   


                                                                        
||------------------|-----------------|-----------------|----------------|
||---0----2----3----|--2----3----5----|--0----2----3----|--3--------2----|
||*--1----2----4----|--2----4----6----|--1----2----4----|--4--------2----|
||*-----------------|-----------------|-----------------|----------------|
||------------------|--0--------------|-----------------|--0-------------|
||---0--------------|-----------------|--0--------------|----------------|


                                                                     
                                                                          
|-----------------|--2----0-----------|-----------------|----------------||
|--2----3----5----|--3-------3--2--0--|--2----3----0----|----------------||
|--2----4----6----|--2----------------|--2----4----1----|--2------------*||
|-----------------|--0----------------|-----------------|---------------*||
|--0--------------|-------------------|-----------------|--0-------------||
|-----------------|-------------------|--0---------0----|----------------||
Добавлено: 06.12.2013
Вам также может быть интересно:
Другие материалы по этой песне:
  • Аккорды и текст

Страница создана 06.12.2013
http://primanota.ru/joseph-kuffner/arietta-chords.htm
Привет, Гость.
Предлагаем пройти революционный курс по гитаре.
Подарок от PrimaNota.Ru, забирай!