PrimaNota.ru - самый крупный в мире бесплатный архив песенных текстов, аккордов, табулатур и нот


Joseph Arthur - Out On A Limb - таба, видео

Регистрация Запомнить меня
Войти через:  Facebook Google Twitter Vk Yandex Mail.ru

Joseph Arthur - Out On A Limb - таба, видео

Печатать
Просмотров: 132
Song: Out on a limb
Artist: Joseph Arthur
Album: The Graduation Ceremony
Tuning: EADGBe
Tabbed by: Audiophile267

New song and beautiful as always, I made this tab from a live version (check: 
http://www.youtube.com/watch?v=BYMMhYTcwIc)as accurate as I could... sounds brighter in the vid 
but keep in mind he uses a 12-string
Some hammer on's but not too hard to catch on...
Enjoy :)

No Capo, Chords required:

F  (x03210) -> use pinky to go to 3 on the e string
Am (x02210)
G* (320000) -> pointer & pinky need to be free to get --1---3-- on B String
C  (x32010)
Em (022000)


Intro & Verse:

    F            Am           F            Am
e|--0-------3----0-------0----0-------3----0-------0--|
B|------1------------1------------1------------1------|
G|----2------------2------------2------------2--------|
D|--3-----3------------2------3-----3------------2----|
A|---------------0-------------------------0----------|
E|----------------------------------------------------|
    Some time, no matter when...

    F            Am           G*                    G*
e|--0-------3----0-------0----0-------0-------------0-------0-------------|
B|------1------------1------------0-------0---1-3-------0-------0---1-3---|
G|----2------------2------------0---------------------0-------------------|
D|--3-----3------------2--------------------0---------------------0-------|
A|---------------0------------------2---2-----------------2---2-----------|
E|----------------------------3---------------------3---------------------|



Chorus:

    C            C            G*           Am
e|--0-------0----0-------0----0-------0----0-------0----|
B|------1------------1------------0------------1--------|
G|----0------------0------------0------------2----------|
D|--------2------------2-------------------------2------|
A|--3------------3------------------2------0------------|
E|----------------------------3-------------------------|
    Time won't run away from me...

   Em         Em
e|--0-------0----0-------0------|
B|------0------------0----------|
G|----0------------0------------|
D|------------------------------|
A|--------2------------2--------|
E|--0------------0--------------|

After the chorus pick F(xx3213) a few times and go back into the verse
Добавлено: 08.05.2012
Другие материалы по этой песне:
  • Аккорды и текст

Страница создана 08.05.2012
http://primanota.ru/joseph-arthur/out-on-a-limb-chords.htm
Привет, Гость.
Предлагаем пройти революционный курс по гитаре.
Подарок от PrimaNota.Ru, забирай!