PrimaNota.ru - самый крупный в мире бесплатный архив песенных текстов, аккордов, табулатур и нот


Joseph And Maia - Sleep - аккорды и текст, видео

Регистрация Запомнить меня
Войти через:  Facebook Google Twitter Vk Yandex Mail.ru

Joseph And Maia - Sleep - аккорды и текст, видео

Печатать
Просмотров: 140
Sleep
Joseph And Maia
From "Sorrento"
P.S: I'm not really sure if the G chord is correct.
NO CAPO

INTRO:
   C
e-----------------------------------------------------------------------|
B----1---1---1---1---1---1---1---1-------1---1---1---1---1---1---1---1--|
G--------------0-----------------------------------0-------0---2---0----|
D------0---2-------2---0-------------------0---2-------2----------------|
A--3-----------------------3---3-------3--------------------------------|
E-----------------------------------------------------------------------|

     Am                               C
e-------------------------------------------------------------------|
B----1---1---1-----1---1---1---1---1---1---1---1-----1---1---1---1--|
G-------------------------------------------------------------------|
D--------------0h2-------------------------------0h2----------------|
A--0-----------------0-------2---2---3---3---3---------3---3---3----|
E-------------------------------------------------------------------|

C                Am
Sleep while, you can baby
       F              G                C
It's cold outside and I can hear the rain,
        C                 Am
On the rooftop, where I spend my lonely nights,
         F                                     C
As the sunlight face the coat stands with the night

          Am   C
Won't you love me like I'm now loving you?
          Am   C             
Won't you need me? say that you do...

*Play the same as intro*

          C        Am
When you open your eyes, babe,
     F                   G              C
The color lives and the darkness fades away.     
             C                      Am
Through the narrow streets, your soul will never see 
            F                           C
And we can live our days to the city's lullaby


          Am   C
Won't you love me like I'm now loving you?
          Am   C             
Won't you need me? say that you do...

          Am   C
Won't you love me like I'm now loving you?
          Am   C             
Won't you need me? say that you do...


*Play the same as Intro*

END...
Добавлено: 03.10.2015
Другие материалы по этой песне:
  • Аккорды и текст

Страница создана 03.10.2015
http://primanota.ru/joseph-and-maia/sleep-chords.htm
Привет, Гость.
Предлагаем пройти революционный курс по гитаре.
Подарок от PrimaNota.Ru, забирай!