PrimaNota.ru - самый крупный в мире бесплатный архив песенных текстов, аккордов, табулатур и нот


Josef K - Fun N Frenzy - бас-таба, видео

Регистрация Запомнить меня
Войти через:  Facebook Google Twitter Vk Yandex Mail.ru

Josef K - Fun N Frenzy - бас-таба, видео

Печатать
Просмотров: 87
Уроки эстрадного вокала в Санкт-Петербурге
-------------------------------------------------------------------------------
                             FUN 'N' FRENZY - Josef K
-------------------------------------------------------------------------------
Tabbed by: SPLAM!

Tuning: EADG

Intro:
  1 + 2 + 3 + 4 +
G|----------------|
D|----------------|
A|----------------|
E|------------7---|

Main Riff:
  1 + 2 + 3 + 4  +  1 + 2 + 3 + 4  +  1 + 2 + 3 + 4 +  1  +  2  +  3  +  4  +  
G|-----------------|-----------------|9-----9-----9---|12-------12-------12----|
D|-----------------|-----------------|----------------|------------------------|
A|7---7-7---7-10-9-|7---7-7---7-10-9-|----------------|------------------------| x6
E|-----------------|-----------------|----------------|------------------------|

Into Chorus:
  1  +  2  +  3  +  4  +  
G|12-------12-------12----|
D|------------------------|
A|------------------------| x3
E|------------------------|

Chorus:
  1 + 2 + 3 + 4 +  1  +  2 + 3 + 4 + 
G|----------9-9---|------------------|
D|----------------|------R-7-R-7-7---|
A|7---7-7-7-------|10-10-------------| x4
E|----------------|------------------|

Repeat Main Riff, Into Chorus.

Then repeat Chorus, and keep repeating until song ends.


| /  slide up
| \  slide down
| h  hammer-on
| p  pull-off
| ~  vibrato
| +  harmonic
| x  Mute note
===============================================================================
Добавлено: 31.12.2015
Другие материалы по этой песне:
  • Аккорды и текст

Страница создана 31.12.2015
http://primanota.ru/josef-k/fun-n-frenzy-chords.htm
Привет, Гость.
Предлагаем пройти революционный курс по гитаре.
Подарок от PrimaNota.Ru, забирай!