PrimaNota.ru - самый крупный в мире бесплатный архив песенных текстов, аккордов, табулатур и нот


Jose Gonzalez - Stories We Build Stories We Tell - таба, видео

Регистрация Запомнить меня
Войти через:  Facebook Google Twitter Vk Yandex Mail.ru

Jose Gonzalez - Stories We Build Stories We Tell - таба, видео

Печатать
Просмотров: 109
-------------------------------------------------------------------------------
                             Stories We Build, Stories We Tell - Jose Gonzalez
-------------------------------------------------------------------------------
Tabbed by:
E-mail: alexmurray86@gmail.com

Awesome song off his new record, figured I would share what I've worked out so far. Not 100% accurate, but
this is enough to nail the background rhythm part that drives the song. Keep in mind that
there is a bunch of lead playing that goes over top of this. 

There are easier ways to play some parts of these riffs, but some of these hammer-ons need to happen to get
it to sound like the recording. 

Make sure to listen to the song to get the feel of the song down.
Enjoy!

Tuning: Drop D, Capo 4th Fret (tab relative to the capo)

Intro:
e|---------------------------------------------------------------------------|
B|---------------------------------------------------------------------------|
G|---------------------------------------------------------------------------|
D|---------2-----------------------------------------------------------------|
A|------3h5---0-3------------3-----------------------------------------------|
D|-0-0---------------0-0--0h7---5-22-0---------------------------------------|

After 3x through, it changes to:
e|---------------------------------------------------------------------------|
B|---------------------------------------------------------------------------|
G|---------------------------------------------------------------------------|
D|--------2-0h2p0------------------------------------------------------------|
A|-----3h5-------3-5---------3-----------------------------------------------|
D|-0-0---------------0-0--0h7--5-22-0----------------------------------------|


Verse x4:
e|---------------------------------------------------------------------------|
B|---------------------------------------------------------------------------|
G|---------------------------------------------------------------------------|
D|---------2-----------------------------------------------------------------|
A|------3h5---0-3------------3-----------------------------------------------|
D|-0-0---------------0-0--0h7---5-22-0---------------------------------------|

After 4x through, it goes to: 
e|---------------------------------------------------------------------------|
B|--10-8--5--1--3------------------------------------------------------------|
G|--7--5--4--2--2------------------------------------------------------------|
D|---------------------------------------------------------------------------|
A|---------------------------------------------------------------------------|
D|---------------------------------------------------------------------------|

After that, it goes on to continue the main progression through the chorus. Listen closely to figure out 
where various points at which these riffs come into play, but this is most of the main song. He adds a few 
extra notes here and there, but this will get you 90% of the way. 

Thanks!


************************************

| h   hammer-on
| p   pull-off

************************************
Добавлено: 27.10.2015
Другие материалы по этой песне:
  • Аккорды и текст

Страница создана 27.10.2015
http://primanota.ru/jose-gonzalez/stories-we-build-stories-we-tell-chords.htm
Привет, Гость.
Предлагаем пройти революционный курс по гитаре.
Подарок от PrimaNota.Ru, забирай!