PrimaNota.ru - самый крупный в мире бесплатный архив песенных текстов, аккордов, табулатур и нот


Jose Gonzalez - Remain - текст песни, таба, видео

Регистрация Запомнить меня
Войти через:  Facebook Google Twitter Vk Yandex Mail.ru

Jose Gonzalez - Remain - текст песни, таба, видео

Печатать
Просмотров: 178
Авторы музыки: José González
Авторы текста: José González
-----------------------------------------------------------------------------
02. Remain
-----------------------------------------------------------------------------
Tabbed by: Arto Schürch
Email:     arto_schuerch@gmx.ch



Drop D-tuning
Capo on the 2nd fret


Lyrics & Song Structure:

[Intro]

V1:	We'll remain 
	after everything's been washed away 
	by the rain 
	We will stand upright as we stand today (x2)

['Ch']

V2:	We'll remain 
	after everything's been washed away 
	by the rain 
	We will stand upright as we stand today (x2)

[Interlude]

V3:	We'll remain 
	after everything's been washed away 
	by the rain 
	We will stand upright as we stand today (x2)

'Ch':	Aaaaaah...
	Aaaaaah...
V':	Aaaaaah...
	Aaaaaah...

[Outro]

----------

Guitar Tab (all relative to Capo):

Intro & basic Verse pattern (play twice or four times):

  1   &   2   &   3   &   4   &    
e|--------------------------------|
B|--------------------------------|
G|----0-----0---0---0---0-----0---|   2x
D|----2-----2---3v2-2---3v2---0---|
A|1-------1-------1-------1-------|
D|--------------------------------|

  1   &   2   &   3   &   4   &    
e|--------------------------------|
B|--------------------------------|
G|----0-----0---0---0---0-----0---|   2x   :|
D|----2-----2---3v2-2---3v2---0---|
A|--------------------------------|
D|0-------0-------0-------0-------|


'Chorus':

  1   &   2   &   3   &   4   &    
e|0-----------------0---1p0-------|
B|3---3-----1---3---3---3-----3---|
G|----0-----0---0-------------0---|   2x
D|--------------------------------|
A|--------------------------------|
D|0-------0-------0-------0-------|

  1   &   2   &   3   &   4   &    
e|0-----------------0---1p0-------|
B|3---3-----1---3---3---3-----3---|
G|----0-----0---0-------------0---|   2x
D|--------------------------------|
A|--------------------------------|
D|3-------3-------3-------3-------|


Verse 2 (= Verse 1, but 2nd time different bassline) + fade-out to interlude:

  1   &   2   &   3   &   4   &    
e|--------------------------------|
B|--------------------------------|
G|----0-----0---0---0---0-----0---|   2x
D|----2-----2---3v2-2---3v2---0---|
A|3-------3-------3-------3-------|
D|--------------------------------|

  1   &   2   &   3   &   4   &    
e|--------------------------------|
B|--------------------------------|
G|----0-----0---0---0---0-----0---|   2x
D|----2-----2---3v2-2---3v2---0---|
A|--------------------------------|
D|0-------0-------0-------0-------|

  1   &   2   &   3   &   4   &    1   &   2   &   3   &   4   &  
e|--------------------------------|--------------------------------|
B|--------------------------------|--------------------------------|
G|----0-----0---0---0---0-----0---|----0-----0---0---0---0-----0---|
D|----2-----2---3v2-2---3v2---0---|----2-----2---3v2-2---3v2---0---|
A|1-------1-------1-------1-------|0-------0-------0-------0-------|
D|--------------------------------|--------------------------------|

  1   &   2   &   3   &   4   &    
e|--------------------------------|
B|--------------------------------|
G|----0-----0---0---0---0-----0---|   2x   :|
D|----2-----2---3v2-2---3v2---0---|
A|--------------------------------|
D|0-------0-------0-------0-------|

...fade-out to interlude...

  1   &   2   &   3   &   4   &    1   &   2   &   3   &   4   &
e|--------------------------------|--------------------------------|
B|--------------------------------|--------------------------------|
G|----0-----0---0---0---0-----0---|----0-----0---0---0---0-----0---|
D|----2-----2---3v2-2---3v2---0---|----2-----2---3v2-2---3v2---0---|
A|--------------------------------|--------------------------------|
D|0~~~----------------------------|--------------------------------|

  1   &   2   &   3   &   4   &    1   &   2   &   3   &   4   &
e|--------------------------------|--------------------------------|
B|--------------------------------|--------------------------------|
G|----0-----0---0---0---0-----0---|----0-----0---0---0---0-----0---|
D|----2-----2---3v2-2---3v2---0---|----2-----2---3v2-2---3v2---0---|
A|--------------------------------|--------------------------------|
D|--------------------------------|--------------------------------|


Interlude (with variations):

  1   &   2   &   3   &   4   &    1   &   2   &   3   &   4   &
e|--------------------------------|---------------------(0)--------|
B|----3-----------------3---------|----1-----------------1---------|
G|----2-------2---------2---------|----0-------0---------0---------|
D|----------0-------------0-------|----------3-------------3-------|
A|1---------------------------0---|3---------------3-----------0---|
D|----------------3---------------|--------------------------------|

  1   &   2   &   3   &   4   &    1   &   2   &   3   &   4   &
e|--------------------------------|--------------------------------|
B|----3-----------------3---------|---(6)---------------(6)--------|
G|----0-------0---------0---------|----0-------0---------0---------|   3.5x
D|----------0-------------0-------|----------0-------------0-------|
A|5---------------------------5---|5---------------5-----------0---|
D|----------------0---------------|--------------------------------|

...4th time (instead of the 2nd line) crescendo into verse 3...

  1   &   2   &   3   &   4   &    1   &   2   &   3   &   4   &
e|--------------------------------|0-------0-------0-------0-------|
B|3-------3-------3-------3-------|3-------3-------3-------3-------|
G|0-------0-------0-------0-------|2-------2-------2-------2-------|
D|0-------0-------0-------0-------|0-------0-------0-------0-------|
A|--------------------------------|------------------------------0-|
D|--------------------------------|--------------------------------|


Verse 3 (like verse 1 and 2, but bassline variations and louder!):

  1   &   2   &   3   &   4   &    1   &   2   &   3   &   4   &
e|--------------------------------|--------------------------------|
B|--------------------------------|--------------------------------|
G|----0-----0---0---0---0-----0---|----0-----0---0---0---0-----0---|
D|----2-----2---3v2-2---3v2---0---|----2-----2---3v2-2---3v2---0---|
A|1-------1-------1-------1-------|0-------0-------0-------0-------|
D|--------------------------------|--------------------------------|

  1   &   2   &   3   &   4   &    1   &   2   &   3   &   4   &
e|--------------------------------|--------------------------------|
B|--------------------------------|--------------------------------|
G|----0-----0---0---0---0-----0---|----0-----0---0---0---0-----0---|   :|
D|----2-----2---3v2-2---3v2---0---|----2-----2---3v2-2---3v2---0---|
A|--------------------------------|------------------------3-------|
D|0-------0-------0-------0-------|0-------0-------0---------------|

  1   &   2   &   3   &   4   &    1   &   2   &   3   &   4   &
e|--------------------------------|--------------------------------|
B|--------------------------------|--------------------------------|
G|----0-----0---0---0---0-----0---|----0-----0---0---0---0-----0---|
D|----2-----2---3v2-2---3v2---0---|----2-----2---3v2-2---3v2---0---|
A|1-------1-------1-------1-------|0-------0-------3-------3-------|
D|--------------------------------|--------------------------------|

  1   &   2   &   3   &   4   &    1   &   2   &   3   &   4   &
e|--------------------------------|--------------------------------|
B|--------------------------------|--------------------------------|
G|----0-----0---0---0---0-----0---|----0-----0---0---0---0-----0---|
D|----2-----2---3v2-2---3v2---0---|----2-----2---3v2-2---3v2---0---|
A|--------------------------------|--------------------------------|
D|0-------0-------0-------0-------|0-------0-------0-------0-------|

  1   &   2   &   3   &   4   &    1   &   2   &   3   &   4   &
e|--------------------------------|--------------------------------|
B|--------------------------------|--------------------------------|
G|----0-----0---0---0---0-----0---|----0-----0---0---0---0-----0---|
D|----2-----2---3v2-2---3v2---0---|----2-----2---3v2-2---3v2---0---|
A|1-------1-------1-------1-------|3-------3-------3-------3-------|
D|--------------------------------|--------------------------------|

  1   &   2   &   3   &   4   &    1   &   2   &   3   &   4   &
e|--------------------------------|--------------------------------|
B|--------------------------------|--------------------------------|
G|----0-----0---0---0---0-----0---|----0-----0---0---0---0-----0---|
D|----2-----2---3v2-2---3v2---0---|----2-----2---3v2-2---3v2---0---|
A|--------------------------------|--------------------------------|
D|0-------0-------0-------0-------|0~~~----------------------------|


Verse' (another slight variation on the basic verse pattern in the aah-part):

  1   &   2   &   3   &   4   &    1   &   2   &   3   &   4   &
e|--------------------------------|--------------------------------|
B|--------------------------------|--------------------------------|
G|----0-----0---0---0---0-----0---|----0-----0---0---0---0-----0---|
D|----2-----2---3v2-2---3v2---0---|----2-----2---3v2-2---3v2---0---|
A|1-------1-------1-------1-------|1-------1-------0-------0-------|
D|--------------------------------|--------------------------------|

  1   &   2   &   3   &   4   &    1   &   2   &   3   &   4   &
e|--------------------------------|--------------------------------|
B|--------------------------------|--------------------------------|
G|----0-----0---0---0---0-----0---|----0-----0---0---0---0-----0---|
D|----2-----2---3v2-2---3v2---0---|----2-----2---3v2-2---3v2---0---|
A|--------------------------------|--------------------------------|
D|0-------0-------0-------0-------|0-------0-------0-------0-------|

 1   &   2   &   3   &   4   &    1   &   2   &   3   &   4   &
e|--------------------------------|--------------------------------|
B|--------------------------------|--------------------------------|
G|----0-----0---0---0---0-----0---|----0-----0---0---0---0-----0---|
D|----2-----2---3v2-2---3v2---0---|----2-----2---3v2-2---3v2---0---|
A|1-------1-------1-------1-------|0-------0-------3-------3-------|
D|--------------------------------|--------------------------------|

  1   &   2   &   3   &   4   &    1   &   2   &   3   &   4   &
e|--------------------------------|--------------------------------|
B|--------------------------------|--------------------------------|
G|----0-----0---0---0---0-----0---|----0-----0---0---0---0-----0---|
D|----2-----2---3v2-2---3v2---0---|----2-----2---3v2-2---3v2---0---|
A|--------------------------------|--------------------------------|
D|0-------0-------0-------0-------|0-------0-------0-------0-------|


Outro:

  1   &   2   &   3   &   4   &    1   &   2   &   3   &   4   &
e|--------------------------------|--------------------------------|
B|--------------------------------|--------------------------------|
G|----0-----0---0---0---0-----0---|----0-----0---0---0---0-----0---|
D|----2-----2---3v2-2---3v2---0---|----2-----2---3v2-2---3v2---0---|
A|--------------------------------|--------------------------------|
D|0---------------0---------------|0---------------0---------------|

  1   &   2   &   3   &   4   &    1   &   2   &   3   &   4   &
e|--------------------------------|--------------------------------|
B|--------------------------------|--------------------------------|
G|----0-----0---0---0---0-----0---|----0-----0---0---0---0-----0---|
D|----2-----2---3v2-2---3v2---0---|----2-----2---3v2-2---3v2---0---|
A|--------------------------------|--------------------------------|
D|0---------------0---------------|0---------------0-------0-------|
Добавлено: 10.10.2013
Другие материалы по этой песне:
  • Аккорды и текст

Страница создана 12.08.2013
http://primanota.ru/jose-gonzalez/remain-chords.htm
Привет, Гость.
Предлагаем пройти революционный курс по гитаре.
Подарок от PrimaNota.Ru, забирай!