PrimaNota.ru - самый крупный в мире бесплатный архив песенных текстов, аккордов, табулатур и нот


Jose Gonzalez - Lovestain - текст песни, таба, видео

Регистрация Запомнить меня
Войти через:  Facebook Google Twitter Vk Yandex Mail.ru

Jose Gonzalez - Lovestain - текст песни, таба, видео

Печатать
Просмотров: 149
Авторы музыки: José González
Авторы текста: José González
-------------------------------------------------------------------------------
			                  LOVESTAIN - Jose Gonzalez
-------------------------------------------------------------------------------
Tabbed by: Tom Walter
Email: josetabs.20.epm [at] spamgourmet.com

Tuning: D A D G B C (Capo 1)

Intro
C|-------------------------|
B|-------------------------|
G|--------2----------------|
D|--------------0----------|
A|-------------------------|
D|--0----------------------|

Verse (repeat x 3)
C|--------------------------|--------------------------|
B|--3--------3-----------3--|--------3-----------3-----|
G|-----2--------2-----2-----|--2--------2-----2-----2--|
D|--0--------0-----------0--|--------0-----------------|
A|--------3--------3--------|-----3--------3--0--------|
D|--------------------------|--------------------3--0--|

C|--------------------------|--------------------------|
B|--3--------3-----------3--|--------3-----------3-----|
G|-----2--------2-----2-----|--2--------2-----2-----2--|
D|--0--------0-----------0--|--------0-----------------|
A|--------3--------3--------|-----3--------3--0--------|
D|--------------------------|--------------------3--0--|

C|-----------------------4--|--------------------------|
B|--3--------3--------------|--3-----3-----------3-----|
G|-----2--------2-----2-----|-----2-----2-----2-----2--|
D|--0--------0-----------0--|--------0-----------------|
A|--------3--------3--------|-----3--------3--0--------|
D|--------------------------|--------------------3--0--|

                             (First ending for verse)
C|---------------------------|--------------0-----0-----|
B|--3---------3-----------3--|-----------0-----0--------|
G|-----2---------2-----2-----|--2-----0--------------0--|
D|--0---------0-----------0--|--------------------------|
A|--------0h3-------3--------|--------------------------|
D|---------------------------|-----3-------/5-----------|

(Second ending)
C|--------------------------|
B|--------3-----------3-----|
G|--2--------2-----2-----2--|
D|--------0-----------------|
A|-----3--------3--0--------|
D|--------------------3--0--|

(Third ending, into chorus)
C|--------------------------|
B|--------3-----------3-----|
G|--2--------2-----2-----0--|
D|--------0-----------------|
A|-----3--------3--0--------|
D|--------------------3--0--|

Chorus
C|--------------------------|--------------------------|
B|--3--------3-----------3--|-----------3-----------3--|
G|-----0--------0-----0-----|--0-----0-----0-----0-----|
D|-----------0-----------0--|----------------(0)-------|
A|--------3--------3--------|----(3)---(3)---(3)---(0)-|
D|--1-----------------------|-----1-----1-----1-----0--|

C|--------------------------|--------------------------|
B|--3--------3-----------3--|--------3-----------3-----|
G|-----2--------2-----2-----|--2--------2-----2-----0--|
D|-----------0-----------0--|--------0-----------------|
A|-(0)----3--------3--------|-----3--------3--0--------|
D|--0-----------------------|--------------------3--0--|

C|--------------------------|--------------------------|
B|--3--------3-----------3--|-----------3-----------3--|
G|-----0--------0-----0-----|--0-----0-----0-----0-----|
D|-------(0)(0)---(0)---(0)-|----(0)---(0)---(0)---(0)-|
A|-------(3)(3)---(3)---(3)-|----(3)---(3)---(3)---(3)-|
D|--1-----1--1-----1-----1--|-----1-----1-----1-----1--|

Bridge
C|--------------------------|--7-----0-----0--7--------|
B|--8--------8--------------|-----------0--------0-----|
G|-----10-------10----10\9--|-----------------------0--|
D|--0--------0----------(0)-|--------------------------|
A|--------------------------|-----0--------------------|
D|--------10-------10-------|--------------------------|

C|--------------------------|--------------------------|
B|--3--------3-----------3--|--------3-----------0-----|
G|-----2--------2-----2-----|--2--------2-----2-----0--|
D|--0--------0-----------0--|--------0-----------------|
A|--------3--------3--------|-----3--------3--0--------|
D|--------------------------|--------------------------|

C|--7-----------------------|--------------------------|
B|-----6-----6--------------|-----------------3--------|
G|--------------0-----0-----|--0-----0-----2-----0-----|
D|--0-----0--0--------------|--------------------------|
A|-----------------------3--|--------------------------|
D|-----------------5--------|-----3----\1--------------|

Outro
C|--------------------------|--------------------------|
B|--3--------3-----------3--|--------3-----------3-----|
G|-----2--------2-----2-----|--2--------2-----2-----0--|
D|--0--------0-----------0--|--------0-----------------|
A|--------3--------3--------|-----3--------3--0--------|
D|--------------------------|--------------------3--0--|

C|--------------------------|--------------------------|
B|--3--------3-----------3--|-----------3--------------|
G|-----0--------0-----0-----|--0-----0-----0-----------|
D|-----------0--------------|--------------------0-----|
A|--------3--------3--------|-----3-----------3--------|
D|--1--------------------1--|-----------1--------------|



| /  slide up
| \  slide down
| h  hammer-on
| p  pull-off
| ~  vibrato
| +  harmonic
| x  Mute note
===============================================================================
Добавлено: 18.10.2013
Другие материалы по этой песне:
  • Аккорды и текст

Страница создана 14.10.2013
http://primanota.ru/jose-gonzalez/lovestain-chords.htm
Привет, Гость.
Предлагаем пройти революционный курс по гитаре.
Подарок от PrimaNota.Ru, забирай!