PrimaNota.ru - самый крупный в мире бесплатный архив песенных текстов, аккордов, табулатур и нот


Jose Gonzalez - Hearbeats - текст песни, таба, видео

Регистрация Запомнить меня
Войти через:  Facebook Google Twitter Vk Yandex Mail.ru

Jose Gonzalez - Hearbeats - текст песни, таба, видео

Печатать
Просмотров: 175
-----------------------------------------------------------------------------
04. Heartbeats
-----------------------------------------------------------------------------
Tabbed by: Arto Schürch
Email:     arto_schuerch@gmx.ch

This is an updated, corrected and final version of "heartbeats" 
(sorry for the misprint in the song title. I can't change it 
anymore...) based on my own tab and the tuning Mikey Niland 
used in his tab (first I had it wrong). So thanks to Mikey, 
who tabbed it before me, but omitted some of the song's subtleties...



Tuning: D,A,D,F#,B,e
Capo on 1st fret
tabbed relative to capo

[Intro], Verses and Chorus:

   1   &   2   &   3   &   4   &    1   &   2   &   3   &   4   &
e |--------------------------------|--------------------------------|
B |--------------------------------|--------------------------------|
F#|----------------------------3---|--------------------3-----------|
D |---(0)--------------0-----------|------------0-------------------|
A |--------4 ^ 5---5-------5-------|4 ^ 5---5-------5-------0-------|
D |0-------------------------------|--------------------------------|

   1   &   2   &   3   &   4   &    1   &   2   &   3   &   4   &
e |--------------------------------|--------------------------------|
B |--------------------------------|--------------------------------|
F#|----------------------------3---|--------------------3-----------|
D |----0---------------0-----------|------------0---------------0---|
A |--------4 ^ 5---5-------5-------|4 ^ 5---5-------5-------0-------|
D |0-------------------------------|--------------------------------|


   1   &   2   &   3   &   4   &    1   &   2   &   3   &   4   &
e |--------------------------------|--------------------------------|
B |--------------------0-----------|--------------------------------|
F#|------------0---------------0---|------------0-------0-----------|
D |--------4-------4-------4-------|--------4-------4---------------|
A |2-------------------------------|0 ^ 2---------------------------|
D |--------------------------------|------------------------4-------|

   1   &   2   &   3   &   4   &    1   &   2   &   3   &   4   &
e |--------------------------------|--------------------------------|
B |--------------------------------|--------------------------------|
F#|--------------------0-----------|--------------------0-----------|   2x
D |------------0---------------0---|------------0-------------------|
A |--------5-------5-------5-------|4 ^ 5---5-------5-------0-------|
D |5-------------------------------|--------------------------------|

...2nd time last line + fill into chorus (same as above)...

   1   &   2   &   3   &   4   &    1   &   2   &   3   &   4   &
e |--------------------------------|--------------------------------|
B |--------------------------------|--------------------------------|
F#|--------------------0-----------|--------------------0-----------|
D |------------0---------------0---|------------0---------------0---|
A |--------5-------5-------5-------|4 ^ 5---5-------5-------5-------|
D |5-------------------------------|--------------------------------|

   1   &   2   &   3   &   4   &
e |--------------------------------|
B |--------------------------------|
F#|--------------------0-----------|
D |------------0-------------------|
A |4 ^ 5---5-------5-------0-------|
D |--------------------------------|


B-Part:

   1   &   2   &   3   &   4   &    
e |--------------------------------|
B |--------------------------------|
F#|--------------------0-----------|   4x
D |------------0---------------0---|
A |--------7-------7-------7-------|
D |7-------------------------------|


   1   &   2   &   3   &   4   &    
e |--------------------------------|
B |--------------------------------|
F#|--------------------0-----------|   4x   :|
D |------------0---------------0---|
A |--------5-------5-------5-------|
D |5-------------------------------|

(
...2nd time above two lines variation of the first line (2nd repetition)...

   1   &   2   &   3   &   4   &    
e |--------------------------------|
B |--------------------------------|
F#|--------------------0-----------|
D |----7-------7---------------0---|
A |--------7-------7-------7-------|
D |7-------------------------------|

)
in one...

   night...-fill into last Chorus

   1   &   2   &   3   &   4   &    1   &   2   &   3   &   4   &
e |--------------------------------|--------------------0-----------|
B |--------------------0-----------|--------------------0-----------|
F#|------------0---------------0---|------------0---------------0---|
D |--------4-------4-------4-------|--------4-------4-------4-------|
A |2-------------------------------|2-------------------------------|
D |--------------------------------|--------------------------------|

   1   &   2   &   3   &   4   &    1   &   2   &   3   &   4   &
e |--------------------------------|--------------------------------|
B |--------------------0-----------|--------------------0-----------|
F#|------------0---------------0---|----3-------0-------------------|
D |--------4-------4-------4-------|--------------------------------|
A |2-------------------------------|2-------2-------2-------0-------|
D |--------------------------------|--------------------------------|

last chord:

   1   
e |--------------------------------||
B |--------------------------------||
F#|3}~~~---------------------------||
D |0}~~~---------------------------||
A |0}~~~---------------------------||
D |0-------------------------------||

Добавлено: 24.08.2013
Другие материалы по этой песне:
  • Аккорды и текст

Страница создана 19.08.2013
http://primanota.ru/jose-gonzalez/hearbeats-chords.htm
Привет, Гость.
Предлагаем пройти революционный курс по гитаре.
Подарок от PrimaNota.Ru, забирай!