PrimaNota.ru - самый крупный в мире бесплатный архив песенных текстов, аккордов, табулатур и нот


Jose Gonzalez - Far Away - текст песни, таба, видео

Регистрация Запомнить меня
Войти через:  Facebook Google Twitter Vk Yandex Mail.ru

Jose Gonzalez - Far Away - текст песни, таба, видео

Печатать
Просмотров: 544
-------------------------------------------------------------------------------
			     Far Away - José González
-------------------------------------------------------------------------------
Tabbed by: lundy3


I've tried my best to make it easy to play.
It's all done by ear! Enjoy.

Tuning: BADF#Be




Intro:

|---------------|
|------------0--|
|----------0----|
|--4-----4------|
|------2--------|
|----0----------|


=========================================================================

Verse: 

|------------------------|
|----------0---------0---|
|--------0---------0-----|
|------4---------4-------|
|----------------------2-|
|--0-0-------0-0---------|

(Variations of the verse)

1:04
|------------------0-----|
|----------0-----------0-|
|--------0-------0---0---|
|------4-------4---------|
|------------------------|
|--0-0-------0-----------|

1:45
|------------------------|
|----------0-----------0-|
|--------0---------0-----|
|------4---------4---4---|
|--------------2---------|
|--0-0-------0-----------|


at 1:51
|------------------------|------------------------|
|----------0---------0---|----------0---------0---|
|--------0---------0-----|--------0---------0-----|
|------4---------4-------|------4---------4-------|
|----------------------2-|----------------------2-|
|--5-5-------3-3---------|--0-0-------0-0---------|  


at 2:23
|------------------------|------------------------|
|------------------------|----------0---------0---| 
|--------0--------0---0--|--------0---------0-----| 
|------0--------0---0----|------4---------4-------|
|----0--------0----------|----------------------2-|
|--3------/5-------------|--0-0-------0-0---------|  


=========================================================================

Chorus:


|----------------------------|--------------------------|
|------------0---------0-----|----------0---------0-----|
|----------0---------0-------|--------0---------0-------|
|--------4---------4-------4-|------4---------4-------4-|
|--0-7-7-------7-7-------7---|----------------------7---|
|----------------------------|--0-0-------0-0-----------|

----------------------------|------------------------|
-----------0------0---0---0-|----------0---------0---|
---------0----------0---0---|--------0---------0-----|
-------4----------0---0---0-|------4---------4-------|
---7-7-------7-7------------|--2-2-------2-2-------2-|
----------------------------|------------------------|

=========================================================================


Interlude (first at 1:31):


|-------------------------|----------------------
|----------0---------0----|----------------------
|--------0---------0------|--------0--------0---0
|------4---------4-----0--|------0--------0---0--
|-------------------------|----0--------0--------
|--0-0-------0-0----------|--3------/5-----------

-------------------2p-|
-----------------3----|
--------0------3------|
------0----2-4--------|
----0-----------------|
/7--------------------|


=========================================================================


Outro:

at 3:54
|------0---------0---------|
|------0---0-----0---0---0-|
|--------0---------0-------|
|------4---------4-----4---| x11
|--------------------------|
|--0-0-------0-0-----------|

|------0---------0-----------|
|------0---0-----0---0---0---|
|--------0---------0---------|
|------4---------4-----4-----|
|----------------------------|
|--0-0-------0-0-----------0-|




************************************

| /   slide up
| \   slide down
| h   hammer-on
| p   pull-off
| ~   vibrato
| +   harmonic
| x   Mute note
| b   Bend

************************************
Добавлено: 12.10.2013
Другие материалы по этой песне:
  • Аккорды и текст

Страница создана 28.07.2013
http://primanota.ru/jose-gonzalez/far-away-chords.htm
Привет, Гость.
Предлагаем пройти революционный курс по гитаре.
Подарок от PrimaNota.Ru, забирай!