PrimaNota.ru - самый крупный в мире бесплатный архив песенных текстов, аккордов, табулатур и нот


Jose Gonzalez - Born In The Usa - таба, видео

Регистрация Запомнить меня
Войти через:  Facebook Google Twitter Vk Yandex Mail.ru

Jose Gonzalez - Born In The Usa - таба, видео

Печатать
Просмотров: 119
Jose Gonzalez - Born in the USA (Bruce Springsteen cover)

Tabbed by Ishan Singh-Levett.

I couldn't find this anywhere on the net, so this is just what I could
figure out from an incomplete video on Youtube but it's a start.

Tuning : DGDGBe (drop both the 5th and 6th strings down a tone from
standard tuning)

INTRO:

 (D)			      (D)
e|-----0----0-0-0-0-0--0--0--|----0---0-0-0-0-0--0--0--|
B|-----3----3-3-0-3-3--3--3--|----3---3-3-0-3-3--3--3--|
G|-----2----0-2-2-0-2--2--2--|----2---0-2-2-0-2--2--2--|
D|--0--0----0-0-0-0-0--0--0--|-0--0---0-0-0-0-0--0--0--|
G|--2--2---------------2--2--|-2--2--------------2--2--|
D|--0--0---------------0--0--|-0--0--------------0--0--|

(D/G)			      (D/G) 			(D)
e|-----0----0-0-0-0-0--0--0--|----0---0-0-0-0-0--0--0--|-----0---|
B|-----3----3-3-0-3-3--3--3--|----3---3-3-0-3-3--3--3--|-----3---|
G|-----2----0-2-2-0-2--2--2--|----2---0-2-2-0-2--2--2--|-----2---|
D|--0--0----0-0-0-0-0--0--0--|-0--0---0-0-0-0-0--0--0--|--0--0---|
G|--0--0---------------0--0--|-0--0--------------0--0--|--2--2---|
D|--0--0---------------0--0--|-0--0--------------0--0--|--0--0---|

.. and so on


During the verses the chords are just strummed

(D)
Got in a little home town jam

(D)
So they put a rifle in my hand

(D/G)
Sent me off to a foreign land

(D/G)
To go and kill the yellow man, I was

(D)
(Born in the USA)......


Hopefully this is helpful.  Obviously you'll need to listen to a recording to get a 
of the feel and timing.
Comments/criticism welcome - ishansl@yahoo.com
Добавлено: 11.10.2013
Другие материалы по этой песне:
  • Аккорды и текст

Страница создана 11.10.2013
http://primanota.ru/jose-gonzalez/born-in-the-usa-chords.htm
Привет, Гость.
Предлагаем пройти революционный курс по гитаре.
Подарок от PrimaNota.Ru, забирай!