PrimaNota.ru - самый крупный в мире бесплатный архив песенных текстов, аккордов, табулатур и нот


Jose Gonzales - Heartbeat - таба, видео

Регистрация Запомнить меня
Войти через:  Facebook Google Twitter Vk Yandex Mail.ru

Jose Gonzales - Heartbeat - таба, видео

Печатать
Просмотров: 56
heartbeat - josé gonzales

-------------------------------------------------------------------------

I think mr josé does a lot of personal thingies on the picking and stuff
and didnt feel like spending the entire night
(it was already around 1 AM when i started)
just to get every little detail just right.
G this is kinda the basics ya know?
but beware, cause i am not a man of patiens and there
might be errors and boobytraps all over the place!

Correct me if im wrong, dont if im right.

enjoy! /c

--------------------------------------------------------------------------
A'ight, lets get down 2 da bizniz.

h = hammer on
p = pull of


Tip: use your fingers!


Verse:
Its kinda like this, and it just goes round and round..
Dont stick too close to the notes, get the feelin and let it flow.
Listen to the song.

E
|   |   |   |    |   |   |   |    |   |   |   |    |   |   |   |
|----------------|----------------|----------------|----------------|
|----------------|----------------|----------------|----------------|
|----------------|----------------|----------------|----------------|
|----------9-----|----------9-----|----------9-----|----------9-----|
|----6h7-------7-|6h7---7---------|----6h7-------7-|6h7---7---------|
|0---0---0---0---|0---0---0---7---|0---0---0---0---|0---0---0---7---|

C#m                                Amajsus2
|   |   |   |    |   |   |   |    |   |   |   |    |   |   |   |
|----------------|----------------|----------------|----------------|
|----------------|----------------|----------------|----------------|
|----------6-----|------6---------|----------------|----------------|
|------6---6---6-|------6---6-----|----------6-----|------6---------|
|----------------|----------------|------7---------|6h7-------7-----|
|9---9---9---9---|7h9-9---9---4---|5---5---5---5---|5---5---5---7---|


Chorus:
Ok the Chorus is the verse.. i.e. chorus = verse.
Only difference is that our beautiful friend with the guitar plays an
extra 4 (i think) beats of the A and later on the E too i think.
He waits a bit. Lets himself and the listeners breath a little..
If you're a clown you can always wait a bit longer and do a joke or
something. i dunno.

Bridge:
I didnt really have the patiens to check the bridge out with a
microscope.. so this part is a bit cranky..
But it kinda goes as follows..
You have 3 parts, with some differences in part 1 and 2.
so theres a: Part 1a, 1b, 2a, 2b and 3.

They're put together kinda like:
1a, 1a, 1a, 1a
2a, 2a
1a, 1a, 1b, 1a
2a, 2b, 2b
3, 3, 3, 3

...or somethin like that.

Part 1a
B
|   |   |   |
|----------------|
|----------------|
|----------------|
|------6---------|
|7---------9p7---|
|7---7---7-------|

Part 2a
A
|   |   |   |    |   |   |   |
|----------------|----------------|
|----------------|----------------|
|----------------|----------------|
|------6---------|------6---------|
|7---------9p7---|6h7-------9p7---|
|5---5---5-----5-|----5---5-----5-|


Part 1b
B
|   |   |   |
|----------------|
|----------------|
|----------------|
|------9---6-----|
|7-----------9p7-|
|7---7---7-------|


Part 2b
A
|   |   |   |
|----------------|
|----------------|
|----------------|
|------9---6-----|
|7-----------9p7-|
|5---5---5-------|

Part 3
|   |   |   |    |   |   |   |
|----------------|----------------|
|----------------|----------------|
|6-----6---------|----------6-----|
|6---------6-----|6-----9---6-----|
|----------------|----------------|
|9---9---9---9---|9---9---9---9---|

--------------------------------------------------------------------------

And the arrangement is kinda like:
verse, chorus, verse, chorus, bridge, chorus    (chocking eh?)

--------------------------------------------------------------------------

_________________________________________________________________
     
Добавлено: 21.06.2013
Другие материалы по этой песне:
  • Аккорды и текст

Страница создана 21.06.2013
http://primanota.ru/jose-gonzales/heartbeat-chords.htm
Привет, Гость.
Предлагаем пройти революционный курс по гитаре.
Подарок от PrimaNota.Ru, забирай!