PrimaNota.ru - самый крупный в мире бесплатный архив песенных текстов, аккордов, табулатур и нот


Jose Feliciano - Light My Fire - аккорды и текст, таба, видео

Регистрация Запомнить меня
Войти через:  Facebook Google Twitter Vk Yandex Mail.ru

Jose Feliciano - Light My Fire - аккорды и текст, таба, видео

Печатать
Просмотров: 153
Авторы: John Densmore, Robby Krieger, Jim Morrison, Ray Manzarek

Light My Fire
Jose Feliciano
		   LIGHT MY FIRE

(I HAVE GUITAR PRO FILES FOR THE INTRO
AND LEAD-IF ANYBODY WANTS THEM-EMAIL ME)

E||-------0-------0---0---0-|
B||-------1-------1---1---1-|
G||-------0-------0---0---0-|
D||-------2-------2---2---2-|
A||-------0-------0---0---0-|
E||-------------------------|



-------------------------------|
-------2----------0----------0-|
-------2--------2----2-----2---|
-------4-----4----------4------|
-------------------------------|
-------------------------------|



--------------------0--------0-|-----0----0------------4---|
-----------0--------1--------1-|-----1----1------2-----2---|
---2----2-----2-----0--------0-|-----0----0------2-----2---|
-----4----------4---2--------2-|-----2----2------4---------|
--------------------0--------0-|-----0----0----------------|
-------------------------------|---------------------------|



-----4-----4---2-----------|----------------------------|
-----2-----2---2------0----|--0----0---0--7---7-----7---|
-----2-----2---2------4----|--4----4---4--6---6-----7---|
----------------------5----|--5----5---5--5---5-----7---|
---------------------------|------------------------5---|
---------------------------|--------------5---5---------|



-------------------------|----------------------------|
-----5------3------2-----|----0----0---0---0--7---7---|
-----6------4------2-----|----4----4---4---4--6---6---|
-----7------4------2-----|----5----5---5---5--5---5---|
-----7------2------0-----|----------------------------|
-------------------------|--------------------5---5---|



-----------------------|-----------------------------|
----7-----5-----3------|--2-------0---0----0---0---3-|
----7-----6-----4------|--2-------4---4----4---4---2-|
----7-----7-----4------|--2-------5---5----5---5---0-|
----5-----7------------|--0--------------------------|
-----------------------|-----------------------------|



------------0----------|-------------------||
-----3------0----------|-------------------||
-----2------1----------|-------------------||
-----0------2----------|-------------------||
------------2----------|-------------------||
------------0----------|-------------------||


You (Am7)know that it would be (Gbm)untrue
You (Am7)know that I would be a (Gbm)liar
(Am7)If I was to say to (Gbm)you
(Am7)Girl, we couldn't get much (Gbm)higher

(G)Come on baby, (A6)light my (D)fire(Bm)
(G)Come on baby, (A6)light my (D)fire(Bm)
(G)Try to set the (D)night on (E)fire

The time to hesitate is through
No time to wallow in the mire
Try now we can only lose
And our love become a funeral pyre

Come on baby, light my fire
Come on baby, light my fire
Try to set the night on fire, yeah

LEAD

E||--------------------|--------------------------|
B||--------------------|---1---3------3------3----|
G||------------------2-|--------------------------|
D||--------------------|--------------------------|
A||--------------------|--------------------------|
E||--------------------|--------------------------|



---------------------------|-------------------------|
-----3-1---------2-----2---|-----------1---3-----3---|
---------2-------2-----2---|-------2-----------------|
-----------------4-----4---|-------------------------|
---------------------------|-------------------------|
---------------------------|-------------------------|



--------------------------|----------------------------|
-----3-----3--1-------2---|-----2-----------1-3-4------|
----------------2-----2---|-----2---------2--------5---|
----------------------4---|-----4--------------------7-|
--------------------------|----------------------------|
--------------------------|----------------------------|



---------------------------------------|
-----3-4-----1-3-4-3-1---1-3-4---------|
---5-----5-2-----------2-------5-2-----|
---------------------------------------|
---------------------------------------|
---------------------------------------|



------------------------|----0------0--0---0------0-|
----2------2-----2------|----1------1--1---1------1-|
----2------2-----2------|----4------4--4---2------2-|
----4------4-----4------|----2------2--2---2------2-|
------------------------|---------------------------|
------------------------|---------------------------|



-------------4-----4-----2-|---------------------------|
--------2----2-----2-----2-|---------0---0---0---0---7-|
--------2----2-----2-----2-|---------4---4---4---4---6-|
--------4------------------|---------5---5---5---5---5-|
---------------------------|---------------------------|
---------------------------|-------------------------5-|



-----------------0-------|-------------------------|
----7------7-----5-----3-|------2-----0------0---0-|
----6------7-----6-----4-|------2-----4------4---4-|
----5------7-----7-----4-|------2-----5------5---5-|
-----------5-----7-------|------0------------------|
----5--------------------|-------------------------|



--------------------------|------------------------|
----0----7--7-----7-----5-|-------3------2-------0-|
----4----6--6-----7-----6-|-------4------2-------4-|
----5----5--5-----7-----7-|-------4------2-------5-|
------------------5-----7-|--------------0---------|
---------5--5-----------5-|------------------------|



-------------------------0-|-------------------||
------0---0---3---3------0-|-------------------||
------4---4---2---2------1-|-------------------||
------5---5---0---0------2-|-------------------||
-------------------------2-|-------------------||
-------------------------0-|-------------------||


Repeat Verse & Chorus     
Добавлено: 21.07.2013
Другие материалы по этой песне:

Страница создана 01.05.2012
http://primanota.ru/jose-feliciano/light-my-fire-chords.htm
Привет, Гость.
Предлагаем пройти революционный курс по гитаре.
Подарок от PrimaNota.Ru, забирай!