PrimaNota.ru - самый крупный в мире бесплатный архив песенных текстов, аккордов, табулатур и нот


Jose Cid - A Minha Musica - таба, видео

Регистрация Запомнить меня
Войти через:  Facebook Google Twitter Vk Yandex Mail.ru

Jose Cid - A Minha Musica - таба, видео

Печатать
Просмотров: 162
Уроки эстрадного вокала в Санкт-Петербурге
MINHA MÚSICA - José Cid

Tabbed by Nytrogod, 2011


Intro:

C                     Dm
Música, eu nasci prá música
 G                         C
Para te ver sorrir e a sonhar
                   C7
E se escutares com atenção
F
Tens o bater do coração
   C      G   C
Na minha música


MAIN RIFF:

e|-------------------------------------|
B|-------------------------------------|
G|-------------------------------------|
D|-------------------------------------|
A|--8-6----8-6-------------------------|
E|------8~~----6~~---7--7--6-7-10-8~~--|

e|-----------------------------------------------------------------|
B|-----------------------------------------------------------------|
G|-----------------------------------------------------------------|
D|-----------------------------------------------------------------|
A|--8-6----8--6----------------------------------------------------|
E|------8~~------6~~---7--7--6-7-10-7--7--6-7-10-7--7--6-7-10-8~~--|


Cm 
Recordo-me hoje vagamente 
Bb 
De quando era criança 
 G                            Cm 
Vivia numa vila linda à beira Tejo


e|-----------------------------------------------------|
B|-----------------------------11b^(13)rb(11)-8-11/13--|
G|-------8----10b^(12)rb(10)-8-------------------------|
D|--8-10---10------------------------------------------|
A|-----------------------------------------------------|
E|-----------------------------------------------------|

Cm
Tinha uma namorada loira 
  Bb 
E os amigos na escola 
G                         Cm 
Sexta-feira Santa ia no cortejo

Eb                        Bb 
E o meu pai dizia: - Filho, quando fores maior 
G                          Cm 
Tens que ser um engenheiro ou doutor.


e|--------------------------------------------|
B|------------------------------------11------|
G|--10^b(12)rb(10)-8-10^b(12)rb(10)-7----8~~--|
D|--------------------------------------------|
A|--------------------------------------------|
E|--------------------------------------------|


Eb 
Qual doutor dizia eu 
    Bb 
Que mau doutor seria 
G                         Cm 
Quero é cantar numa telefonia. 


C                     Dm
Música, eu nasci prá música
 G                         C
Para te ver sorrir e a sonhar


e|-----------------|
B|-----------------|
G|-----------------|
D|-----------------|
A|--3------3-3-----|
E|----5-3-----5-3--|

  C                 C7
E se escutares com atenção
F
Tens o bater do coração
   C      G   C
Na minha música

Repeat  Main Riff

Cm                             Bb 
Quando entrei para o liceu comecei a tocar 
G                                            Cm 
O Jazz, a Bossa Nova, os Blues e o Rock and Roll 


e|-------------------------------------------------|
B|-------------------------------------------------|
G|--10^b(12)rb(10)--8-10-8-10-8--------------------|
D|------------------------------10-8---------------|
A|-----------------------------------10-8----------|
E|----------------------------------------11-8-11--|

Cm 
O António,  o Jorge e o Michel 
Bb 
Eram os 1111.  
G 
Dos Beatles, Elton Jonh, Bob Dylan,  
           Cm 
e Rolling Stones 


Eb                         Bb 
E o meu pai dizia: filho, tens que usar gravata 
G                            Cm 
Vê lá é se ganhas tino e juizinho.

e|--------------------------------------------|
B|------------------------------------11------|
G|--10^b(12)rb(10)-8-10^b(12)rb(10)-7----8~~--|
D|--------------------------------------------|
A|--------------------------------------------|
E|--------------------------------------------|

   Eb                  Bb    
De blusão e de Blue Jeans, igual a James Deen 
G                               Cm 
Já mordia cá por dentro esse bichinho  (da)

C                     Dm
Música, eu nasci prá música
 G                         C
Para te ver sorrir e a sonhar


e|-----------------|
B|-----------------|
G|-----------------|
D|-----------------|
A|--3------3-3-----|
E|----5-3-----5-3--|

 C                  C7
E se escutares com atenção
F
Tens o bater do coração
   C      G   C
Na minha música


D                      Em 
Música, eu nasci p'rá música 
A                          D 
para te ver sorrir e a sonhar

e|-----------------|
B|-----------------|
G|-----------------|
D|-----------------|
A|--5------5-5-----|
E|----7-5-----7-5--|

 D                  D7 
e se escutares com atenção 
G 
tens o bater do teu coração 
  D     A      
na minha músi…
 D     A      
minha músi... 
 D     A   D   
minha música.


Repeat  Main Riff

END
Добавлено: 05.05.2012
Другие материалы по этой песне:
  • Аккорды и текст

Страница создана 05.05.2012
http://primanota.ru/jose-cid/a-minha-musica-chords.htm
Привет, Гость.
Предлагаем пройти революционный курс по гитаре.
Подарок от PrimaNota.Ru, забирай!