PrimaNota.ru - самый крупный в мире бесплатный архив песенных текстов, аккордов, табулатур и нот


Jose Andrea - La Belleza Está En Tu Interior - аккорды и текст, видео

Регистрация Запомнить меня
Войти через:  Facebook Google Twitter Vk Yandex Mail.ru

Jose Andrea - La Belleza Está En Tu Interior - аккорды и текст, видео

Печатать
Просмотров: 104
La Belleza Está En Tu Interior
Jose Andrea
C#m         E       A              E
Aprende a mirar con el alma y no tras un cristal
C#m         E       A               E
Escucha y verás que no es tan difícil crecer
C#m      E        A           E
En la soledad de tu cuarto, en tu interior
C#m      E       A              E
oirás una voz que al mirarte en el espejo dirá:
     A           E      A          E
Que horror, que horror esa gorda no soy yo
  D
no es mi cara y no hay pechos
 B
mis granos se ven de lejos.

Coro:

 E          A       B         E           A       B     E
La belleza vive en tu interior y no en una talla inferior
E               A       B     E              A
No olvides que de el barro nació la flor más hermosa que
    B        E
nunca nadie vio.


C#m         E       A              E
Si te quiere gustar, maquíllate de personalidad
C#m         E       A              E
utiliza el carmín para decorar tu interior
     A           E      A          E
Da brillo, da color, al gusto por aprender
 D                              B
que tu cuerpo es sólo un traje y la

moda es un mal viaje.

Coro:

 E          A       B         E           A       B     E
La belleza vive en tu interior y no en una talla inferior
E               A       B     E              A
No olvides que de el barro nació la flor más hermosa que
    B        E
nunca nadie vio.

 A                    E      A                E
Y si has perdido el rumbo y no encuentras consuelo
 D                      B             A     E
haz caso de lo que digo y el amor se irá contigo.


---------------------------------4---2-4-2-0--0-0
-------5---------------------5-----5--------0-0-0
-1-2/4---6-4-4-4-------1-2/4---6-----------------
-2-4/6---7-7-4-4-6-4-6-2-4/6---7-----------------
-------------------------------------------------
-------------------------------------------------


-------------------------------------------------
-------5-----7-9---9-----------12---10-9-10-12---
-1-2/4---6-4-8-9---9---------9----9------------9-
-2-4/6---7-7-9-11--11---9-11---------------------
----------------------9--------------------------
-------------------------------------------------

-------4-4-2-4-0---0--12---------
----5------------0----12---------
-------------------------11/13---
-11------------------------------
---------------------------------
---------------------------------


C#m         E           A              E
Para amar y ser amada a ti te tienes que querer
  D                    B                      A
Y te juro que ese día el mundo tendrás a tus pies.
Добавлено: 22.09.2015
Другие материалы по этой песне:
  • Аккорды и текст

Страница создана 22.09.2015
http://primanota.ru/jose-andrea/la-belleza-esta-en-tu-interior-chords.htm
Привет, Гость.
Предлагаем пройти революционный курс по гитаре.
Подарок от PrimaNota.Ru, забирай!