PrimaNota.ru - самый крупный в мире бесплатный архив песенных текстов, аккордов, табулатур и нот


Jose A. Bedoya - El Negro Picante - аккорды и текст, видео

Регистрация Запомнить меня
Войти через:  Facebook Google Twitter Vk Yandex Mail.ru

Jose A. Bedoya - El Negro Picante - аккорды и текст, видео

Печатать
Просмотров: 86
El Negro Picante
Jose A. Bedoya
Este es el tab correcto para el versión original(y de todo modos, mejor que la de Los 50 de Joselitos)
hecho por
Jose Bedoya.

Punteo

e|---0--0--5--4--5--7--8--5--8--7--5--0--5--4--------------------------------|
B|---------------------------------------------5--3~-------------------------|
G|---------------------------------------------------------------------------|
D|---------------------------------------------------------------------------|
A|---------------------------------------------------------------------------|
E|---------------------------------------------------------------------------|

e|---------4--4--4--5--7--4--7--5--4-----------------------------------------|
B|---5--5-----------------------------5--5--3--5/6-5~------------------------|
G|---------------------------------------------------------------------------|
D|---------------------------------------------------------------------------|
A|---------------------------------------------------------------------------|
E|---------------------------------------------------------------------------|

e|---------5--5--5--3--1-----5--3--1--4--5--7--7/8--5------------------------|
B|------5-----------------3--------------------------------------------------|
G|---5-----------------------------------------------------------------------|
D|---------------------------------------------------------------------------|
A|---------------------------------------------------------------------------|
E|---------------------------------------------------------------------------|

e|---------8--7--8--7--10--8--7---------10--8--7--5--------------------------|
B|---5--5------------------------10--9---------------------------------------|
G|---------------------------------------------------------------------------|
D|---------------------------------------------------------------------------|
A|---------------------------------------------------------------------------|
E|---------------------------------------------------------------------------|

e|---------------------------------------------------------------------------|
B|------------1---------------0---------1--0---------------------------------|
G|---------2-----2---------1-----1---2---------------------------------------|
D|------0---------------2---------------------2--2--2--0---------------------|
A|---0---------------0------------------------------------3--2--0~-----------|
E|---------------------------------------------------------------------------|

 Am                                       E
Soy un hombre montañero que me vine a divertir
 E                                         Am
Hay perdone los señores que no los deje dormir
 Am                   Dm                   Am
Aunque yo por lo que veo, la gente de la ciudad
 Am                 E                      Am  
No me dan a los Tobillos pa' beber y parrandiar
 Am                                        E
La bota que uso es 40 y alparagatas cuatro-evillas
 E                                          Am
Por entre mis pantalones siempre cargo una peinilla (A-ha!)
 Am                  Dm                   Am
Para alguno que se antoje conocer un montañero
 Am                 E                        Am
Sin corbata, sin zapatos de carriel y con sombrero

 Am             E                           Am
Y tengo mi morenita que la quiero y que la adoro
 Dm             Am
Y soy un negro picante
 E                      Am
Y tengo tres dientes de oro


(Punteo)

 Am                                       E
Hay perdonan los señores que son pura fantasía
 E                                        Am
Que en la billetera cagaran boletas de prendería
 Am             Dm                        Am
Le dicen al cantinero que le sirva una cerveza
 Am              E                        Am
Y se quedan caloriando los tauretes y la mesa
 Am                                      E
El cantinero esperando que manden a destapar
 E                                        Am
Y el señor esta esperando un vale para firmar
 Am                   Dm                       Am
Y en cambio yo que soy guasca y me ven muy maltrajiado
 Am                E                   Am
Tengo billetes de 100 y de 50 para gastarlos

 Am             E                            Am
Y tengo mi morenita que la quiero y que la adoro
 Dm             Am
Y soy un negro picante
 E                      Am
Y tengo tres dientes de oro


(Punteo)

 Am                                         E
Cuando llego a la parranda no la quisiera dejar
 E                                         Am
Cuando saco una pareja yo la saco es pa bailar
 Am                    Dm                        Am
La mujer que a mi me quiera tiene que pisar con maña
 Am                E                         Am
Porque soy muy tomatrago y ella vera si se amaña

 Am             E                            Am
Y tengo mi morenita que la quiero y que la adoro
 Dm              Am
Y soy un negro picante
 E                       Am
Y tengo tres dientes de oro

 Am                                         E
Cuando llego a la parranda no la quisiera dejar
 E                                         Am
Cuando saco una pareja yo la saco es pa bailar
 Am                    Dm                        Am
La mujer que a mi me quiera tiene que pisar con maña
 Am                E                         Am
Porque soy muy tomatrago y ella vera si se amaña
 Am             E                            Am
Y tengo mi morenita que la quiero y que la adoro
 Dm              Am
Y soy un negro picante
 E                       Am  E Am
Y tengo tres dientes de oro

FIN
Добавлено: 17.06.2016
Другие материалы по этой песне:
  • Аккорды и текст

Страница создана 17.06.2016
http://primanota.ru/jose-a-bedoya/el-negro-picante-chords.htm
Привет, Гость.
Предлагаем пройти революционный курс по гитаре.
Подарок от PrimaNota.Ru, забирай!