PrimaNota.ru - самый крупный в мире бесплатный архив песенных текстов, аккордов, табулатур и нот


Jorn Lande - Burning Chains - текст песни, таба, видео

Регистрация Запомнить меня
Войти через:  Facebook Google Twitter Vk Yandex Mail.ru

Jorn Lande - Burning Chains - текст песни, таба, видео

Печатать
Просмотров: 240
-------------------------------------------------------------------------------
                             BURNING CHAINS - Jorn Lande
-------------------------------------------------------------------------------
Tabbed by: MilesAK
E-mail: MilesAK@hotmail.co.uk

Tuning: Standard

Intro:

e|---------------------------------------------------------------------------|
B|-----3-----3-----3-----3----------3---------5------------------------------|
G|---2-----2-----2-----2----------2---------5--------------------------------|
D|-0-----3-----2----------------0-----3-3/5----------------------------------|
A|-------------------3-----0--3----------------------------------------------|
E|---------------------------------------------------------------------------|

e|---------------------------------------------------------------------------|
B|-----3-----3-----3-----3---------------------------------------------------|
G|---2-----2-----2-----2------------0-----0-----2-----2----------------------|
D|-0-----3-----2------------------0-----0-----2-----2---2h3p2-0--------------|
A|-------------------3-----0--3-1-----2-----3-----3-------------3------------|
E|---------------------------------------------------------------------------|

Verse:

(He basically plays variations on the intro here.)

e|----------------------------------------------------------------------------|
B|-----3------3-----3-----3-------3-------3-------3---------------------------|
G|---2------2-----2-----2---2---2-------2-------2-----------------------------|
D|-0------0-----0-----0-------0-----2h3-----0---------------------------------|
A|---------------------0----------------------0-------------------------------|
E|----------------------------------------------------------------------------|

e|----------------------------------------------------------------------------|
B|-----3-----3-----3-------3-3------------------------------------------------|
G|---2-----2-----2-------2---2------------------------------------------------|
D|-0-------------------0-----0------------------------------------------------|
A|-------2-----3-----0-----------------0-3--3/5-------------------------------|
E|-----------------------------------3----------------------------------------|

Solo (After the arpeggios):

e|---------------------------------------------------------------------------|
B|--------------6-6h8~~6p5h6-------------------------------------------------|
G|-----5-5/7~~~7-------------7p5-5~-5h7--------------2-----------------------|
D|-3/5----------------------------------5h7p5-5--0-3---3-5-5-5bp3-0---0------|
A|------------------------------------------------------------------3--------|
E|---------------------------------------------------------------------------|

Verse 2 (When it goes heavier):

e|---------------------------------------------------------------------------|
B|---------------------------------------------------------------------------|
G|-7/9--9-9\------------------------5-----------7-------7--------------------|
D|-7/9--9-9\--------5-5-7--7-7\---7-5---------7---7-5-7---7------------------|
A|-5/7--7-7\--------5-5-7--7-7\----------------------------------------------|
E|------------------3-3-5--5-5\---------5-7-8--------------------------------|

e|---------------------------------------------------------------------------|
B|---------------------------------------------------------------------------|
G|--------------------7-9\---------------------------------------------------|
D|-5/7-7-7-7-5-7------7-9\-(plays into above part)---------------------------|
A|-5/7-7-7-7-5-7------5-7\---------------------------------------------------|
E|-3/5-5-5-5-3-5-------------------------------------------------------------|

"I'll surrender"                                                     "Left ya body..."
e|---------------------------------------------------------------------------|
B|---------------------------------------------------------------------------|
G|--------------9---9-9/11-9------7-------------------9----11---13---------11|
D|-5--7-7--7--x-9---9-9/11-9------------7-------------9----11---13---10----11|
A|-5--7-7--7--x-7-------------7h9---7h9---------------7----9----11---10----9-|
E|-3--5-5--5--x---------------------------3-5-2~~~~~--0--------------8-------|

Solo 2:

e|---------------------------------------------------------------------------------5-7~-7--7-9-10-10b~|
B|------------------------------------------------------------8b--8-7b~p5------7h8--------------------|
G|-2/7-7-7-4-7~~-7--------------------------------2/7-7-7-4-7-------------7-7b------------------------|
D|-----------------7b-5~~-7b-5------------------------------------------------------------------------|
A|-----------------------------7/9--7/10-9-7-5--------------------------------------------------------|
E|---------------------------------------------8~-----------------------------------------------------|


e|-8bp7-----6pb-7-------10---------------------------------------------------|
B|-------8~-------8-10b----10pbp8-10-10~-------------------------------------|
G|---------------------------------------7b-7b-5-4-0-------------------------|
D|---------------------------------------------------------------------------|
A|---------------------------------------------------------------------------|
E|---------------------------------------------------------------------------|

Breakdown (Or the singing after the solo):

"Always just a fool..."
e|---------------------------------------------------------------------------|
B|-5~--5/7--7/8-------------------5~--5/7--7/8-------------------------------|
G|-------------------7-4-----------------------5---4---7---------------------|
D|---------------5h7-----7-5-------------------5---4---7---------------------|
A|---------------------------7-5\--------------3-x-2-x-5---------------------|
E|---------------------------------------------------------------------------|

At the end he just arpegiates over Dm. Hope this helps and if theirs any major mistakes, do let me know.
Hope this helps. :)

************************************

| /   slide up
| \   slide down
| h   hammer-on
| p   pull-off
| ~   vibrato
| +   harmonic
| x   Mute note
| b   Bend
| pb  Pre-bend
| br  Bend release
| pbr Pre-bend release
| brb Bend release bend

************************************
Добавлено: 14.08.2015
Другие материалы по этой песне:
  • Аккорды и текст

Страница создана 08.09.2014
http://primanota.ru/jorn-lande/burning-chains-chords.htm
Привет, Гость.
Предлагаем пройти революционный курс по гитаре.
Подарок от PrimaNota.Ru, забирай!