PrimaNota.ru - самый крупный в мире бесплатный архив песенных текстов, аккордов, табулатур и нот


Jorma Kaukonen - Hamar Promenade - аккорды и текст, видео

Регистрация Запомнить меня
Войти через:  Facebook Google Twitter Vk Yandex Mail.ru

Jorma Kaukonen - Hamar Promenade - аккорды и текст, видео

Печатать
Просмотров: 133
Уроки эстрадного вокала в Санкт-Петербурге
Hamar Promenade
Jorma Kaukonen
Intro 

    G#m        B           C#       G#m
--------------------------------------
--------------------------------------
---------4-6br-4------------4------4--
-----4h6-----------6r4----4---6-------
------------------------6--------6----
--------------------------------------

    G#m        B           C#       G#m
--------------------------------------
--------------------------------------
---------4-6br-4------------4---------
-----4h6-----------6r4----4---6-------
------------------------6--------6----
-----------------------------------4---


        B             C#           B     G#m
We are gonna keep on moving now
              B       C#         B     G#m
though we are in one place.
    B                      C#           B    G#m
We gotta make time. Start slipping on
      B      C#     B    G#m
at a faster pace.

     B           F#         C#        G#m
The world keeps spinning and I can't wait.
 B       F#         C#         G#m
Find the entrance through that doorway.
 B      F#     C#    G#m
Miss it if you hesitate.
      B       F#        C#     G#m
Well, we got wings of steel to fly
 B       F#           C#      G#m
past the home on the shadow mountain
  B          F#         C#    G#m
through the fog in the fire's eye. 

A#m G#m (repeat)

 B               C#      B   G#m
Pushin' on much faster
              B        C#      B   G#m
'til we can't push no more.
       B                   C#      B   G#m
We're down the alley of today
    B              C#      B   G#m
and in tomorrow's door.

     B           F#         C#        G#m
The world keeps spinning and I can't wait.
 B       F#         C#         G#m
Find the entrance through that doorway.
 B      F#     C#    G#m
Miss it if you hesitate.
      B       F#        C#     G#m
Well, we got wings of steel to fly
 B       F#           C#      G#m
past the home on the shadow mountain
  B          F#         C#    G#m
through the fog in the fire's eye. 



Outro

  E   B   C#m  B   F#        G#m
---------------------------------
----5---4---5----4---------------
----4---4---6----4----3----3--4--
----6---4---6----4----4----4--6--
--7---6---4----2----1----1----6--
------------------------------4--
Добавлено: 12.05.2016
Другие материалы по этой песне:
  • Аккорды и текст

Страница создана 12.05.2016
http://primanota.ru/jorma-kaukonen/hamar-promenade-chords.htm
Привет, Гость.
Предлагаем пройти революционный курс по гитаре.
Подарок от PrimaNota.Ru, забирай!