PrimaNota.ru - самый крупный в мире бесплатный архив песенных текстов, аккордов, табулатур и нот


Jorge Morel - Sonatina - 3 - Allegro - таба, видео

Регистрация Запомнить меня
Войти через:  Facebook Google Twitter Vk Yandex Mail.ru

Jorge Morel - Sonatina - 3 - Allegro - таба, видео

Печатать
Просмотров: 195
Sonatina III by Jorge Morel

Tablature by Alex Teixeira (rokstar20@earthlink.net) - August 2002

This is the final phase of Morel's three-part Sonatina.  It should be played
fairly fast.  Keep it flowing all the way through. I've included right-hand
fingerings in a few tricky spots. They appear above the staff.

p=thumb, i=index finger, m=middle finger, a=ring finger

?=fermata

tuning - DADGBE

Allegro

E-(10---------|-------2---2-|-5---0-------|---5p0-3p2-0-|
B-)7----------|---------3---|-------3-----|-------------|
G-(7----------|-------------|---2---------|-2-----4-----|
D-)0----------|-4p0-4-------|-------4p0-4-|-------------|
A-(0----------|-------------|-------------|-------------|
D-)0----------|-------------|-------------|-------------|
 f                    1 2     1 1   2             2
                                    3             3

E-------------|---5p0---3---|---5p0---2---|---5-----0---|
B-------0-----|-------------|-------------|-----3-------|
G---2---------|-------2---2-|-------2---2-|-------2---2-|
D-----2-5p4-2-|-------------|-------------|-------------|
A-0-----------|-0-----------|-0-----------|-0-----------|
D-------------|-------------|-------------|-------------|
        4 3                                   4 2


E---5---------|-------2---2-|-5---0-------|-14--14-17--0-|
B-----3-------|---------3---|-------------|---15---------|
G-------------|-------------|---2---------|----------14--|
D-------------|-4p0-4-------|------<12>---|--------------|
A-0-----------|-------------|-------------|--------------|
D-------0-----|-------------|-------------|--------------|
                                             1 2    4 1


E-10--0-5---0-|-------------|-------5---5-|-9-----5-----|
B-------------|-3-----3-----|-7---7---7---|-----9-------|
G---7-----2---|-------------|---6---------|---7-------6-|
D-------------|-4-----4-----|-4-----------|---------4---|
A-------------|-------------|-------------|-------------|
D-------------|-0-----0-----|-------------|-------------|
  4 1   4 1                mf 4 3   2       4 1 3 2 1 3
                              1

          CII----------------------|       CII----------|
E-------------|-------2---2-|-------------|-------2---2-|
B-0-----------|-2---2---2---|-2---2-0---0-|-2---2---2---|
G-----1-2-----|---2---------|---2-----1---|---2---------|
D---0-------4-|-------------|-4-----4-----|-------------|
A---------4---|-------------|-------------|-------------|
D-------------|-------------|-------------|-4-----------|
      1 1                                   3

 CII---|       CII-----------------|
E-------------|-------2---2-|-------------|-------2---2-|
B-2---2-0---0-|-2---2---2---|-2---2-0---0-|-2---2---2---|
G---2-----0---|---2---------|---2-----0---|---0---------|
D-------------|-------------|-------------|-------------|
A-------------|-------------|-------------|-------------|
D-4-----5-----|-0-----------|-0-----5-----|-2-----------|
        4                                   1

               a tempo
E-------2---2-|-------2---2-|-5---0-------|---5p0-3p2-0-|
B-2---2---2---|---------3---|-------3-----|-------------|
G---0---------|-------------|---2---------|-2-----4-----|
D-------------|-4p0-4-------|-------4p0-4-|-------------|
A-------------|-------------|-------------|-------------|
D-1-----------|-0-----------|-------------|-------------|
  poco rit.    f


E-------------|---5p0---3---|---5p0---2---|---5-----0---|
B-------0-----|-------------|-------------|-----3-------|
G---2---------|-------2---2-|-------2---2-|-------2---2-|
D-----2-5p4-2-|-------------|-------------|-------------|
A-0-----------|-0-----------|-0-----------|-0-----------|
D-------------|-------------|-------------|-------------|



E---5---------|-------2---2-|-5---0-------|-14--14-17--0-|
B-----3-------|---------3---|-------------|---15---------|
G-------------|-------------|---2---------|----------14--|
D-------------|-4p0-4-------|------<12>---|--------------|
A-0-----------|-------------|-------------|--------------|
D-------0-----|-------------|-------------|--------------|


                               a m a m i m
E-10--0-5---0-|-------------||-------------|-------------|
B-------------|-3-----3-----||*0---0-------|-0---0-------|
G---7-----2---|-------------||---0---0---0-|---0---0---0-|
D-------------|-4-----4-----||*--------0---|---------0---|
A-------------|-------------||-------4-----|-------4-----|
D-------------|-0-----0-----||-5-----------|-5-----------|
                            mf 4     3


E-------------|-------0---0-|-3p2-0-------|-------------|
B-------------|-0---0---0---|-------3h2-3-|-0---0-------|
G-------------|---0---------|-------------|---0---0---0-|
D-------2h4-5-|-------------|-------------|---------0---|
A-2h4-5-------|-------------|-------------|-------4-----|
D-------------|-------------|-------------|-5-----------|
  1 3 4 1 3 4       cresc.<   dim.>


E-------------|-------------|-------0---0-|-3p2-0-------|
B-0---0-------|-------------|-0---0---0---|-------3p2-0-|
G---0---0---0-|-------------|---0---------|-------------|
D---------0---|-------2h4-5-|-------------|-------------|
A-------4-----|-2h4-5-------|-------------|-------------|
D-5-----------|-------------|-------------|-------------|
                                  cresc.<   dim.>


E-7---7-------|-7---7-5---5-|-2---2-------|-2---2-0---0-|
B---8---8---8-|---8-----7---|---3---3---3-|---3-----0---|
G---------9---|-------7-----|---------4---|-------0-----|
D-------------|-------------|-------------|-------------|
A-------------|-------------|-------------|-------------|
D-------------|-------------|-------------|-------------|
  1 2 1   3           1 4
 mp                   3

 CII-----------------|       CII---|       CII---|
E-------------|-------------|-------------|-------------|
B-2---2-------|-2---2-0---0-|-------0---0-|-2---2-3---3-|
G---2---2---2-|---2-----0---|-2---2---0---|---2-----4---|
D---------2---|-------0-----|---2---0-----|-2-----5-----|
A-------------|-------------|-4-----------|-------------|
D-------------|-------------|-------------|-------------|
                                                  1 2
                                                  3

E-------7---7-|-0---0-2h3-2-|-0---0-5---5-|-------0h2-0-|
B-5---5---5---|---0---------|---0---------|-3---3-------|
G---6---------|-0-----------|---------2---|-------------|
D-7-----------|-------------|-------------|---0---------|
A-------------|-------------|-4-----------|-------------|
D-------------|-------------|-------------|-------------|
  1 2   4                           4 1
  3
  __________________________
 /1st ending                \
E-------------|-------------||
B-3p2-0-------|-----------*-||
G-------2p0---|---------0h2-||
D-----------4-|-2p0-2-4---*-||
A-------------|-------------||
D-------------|-------------||


 /2nd ending
E-------2p0---|-3p2-0-5p3-2-|-7-----7-9-10-|-9-----9-10-12-|
B-3p2-0-----3-|-------------|---8h10-------|--10-12--------|
G-------------|-------------|--------------|---------------|
D-------------|-------------|--------------|---------------|
A-------------|-------------|--------------|---------------|
D-------------|-------------|--------------|---------------|
                              1 2 4

                    breve    CVII------------|    CVII--|
                      ?       m p i m i
E-10--10------|-------------|-------------|-7---0-------|
B-------------|-------------|-------7---7-|-------7---7-|
G---7---------|-7---7-------|-7---7---7---|---------7---|
D-------0-----|---0---------|---9---------|---9---9-----|
A-------------|-------------|-------------|-------------|
D-------------|-------0-----|-9-----------|-------------|
                              2               3

 CVII--|       CVII----------------|
E-7---7-14--0-|-7---7-10----|-9---9-7---7-|-5---5-3---3-|
B---7---------|---7-----7---|---7-----5---|---3-----2---|
G---------11--|-7-----------|-------------|-------------|
D-------------|-------9---9-|-7-----5---5-|-4-----2-----|
A-------------|-------------|-------------|-------------|
D-------------|-------------|-------------|-------------|
        4 1           4       4  cresc.<
                      3

               CII----------|
                p m i p m i   p m i p m i
E-2---2-0---0-|-------------|-------------|-------------|
B---0---------|---3-----3---|---2-----2---|---0-----0---|
G---------0---|-------------|-------------|-------------|
D-0-----------|-----4-5---4-|-----4-5---4-|-----0-2---0-|
A-------4-----|-2-----------|-0-----------|-------------|
D-------------|-------------|-------------|-5-----------|
                f   3 4           3 4       4

                    p i
E-------------|-------------|-------------|-------------|
B-------------|---3-----3---|---2-----2---|---0-----0---|
G---3-----3---|-------0-----|-------0-----|-------------|
D-----0-2---0-|-----4-----4-|-----4-----4-|-------2-----|
A-------------|-2-----------|-0-----------|-----5-----5-|
D-4-----------|-------------|-------------|-5-----------|
  3 2   1      p  2 3   2 3     1 3     2   3   4 1   4


E-------------|-------------|-------------|-------------|
B-------------|-------------|-0---0-------|-0---0-------|
G---3-----3---|-------------|---0---0---0-|---0---0---0-|
D-------2-----|-------------|---------0---|---------0---|
A-----5-----5-|-2-----2-----|-------4-----|-------4-----|
D-4-----------|-------------|-5-----------|-5-----------|
  3 2 4 1 2 4                 mf


E-------------|-------0---0-|-3p2-0-------|-------------|
B-------------|-0---0---0---|-------3h2-3-|-0---0-------|
G-------------|---0---------|-------------|---0---0---0-|
D-------2h4-5-|-------------|-------------|---------0---|
A-2h4-5-------|-------------|-------------|-------4-----|
D-------------|-------------|-------------|-5-----------|
                    cresc.<    dim.>


E-------------|-------------|-------0---0-|-3p2-0-------|
B-0---0-------|-------------|-0---0---0---|-------3p2-0-|
G---0---0---0-|-------------|---0---------|-------------|
D---------0---|-------2h4-5-|-------------|-------------|
A-------4-----|-2h4-5-------|-------------|-------------|
D-5-----------|-------------|-------------|-------------|
                                   cresc.    dim.


E-7---7-------|-7---7-5---5-|-2---2-------|-2---2-0---0-|
B---8---8---8-|---8-----7---|---3---3---3-|---3-----0---|
G---------9---|-9-----7-----|---------4---|-4-----0-----|
D-------------|-------------|-------------|-------------|
A-------------|-------------|-------------|-------------|
D-------------|-------------|-------------|-------------|
 mp


E-------------|-------------|-------------|-------------|
B-2---2-------|-2---2-0---0-|-------0---0-|-2---2-3---3-|
G---2---2---2-|---2-----0---|-2---2---0---|---2-----4---|
D---------2---|-------0-----|---2---0-----|-2-----5-----|
A-------------|-------------|-4-----------|-------------|
D-------------|-------------|-------------|-------------|



E-------7---7-|-0---0-2h3-2-|-0---0-5---5-|-------0h2-0-|
B-5---5---5---|---0---------|---0---------|-3---3-------|
G---6---------|-0-----------|---------2---|-------------|
D-7-----------|-------------|-------------|---0---------|
A-------------|-------------|-4-----------|-------------|
D-------------|-------------|-------------|-------------|



E-------2p0---|-3p2-0-5p3-2-|-7-----7-9-10-|-9-----9-10-12-|
B-3p2-0-----3-|-------------|---8h10-------|--10h12--------|
G-------------|-------------|--------------|---------------|
D-------------|-------------|--------------|---------------|
A-------------|-------------|--------------|---------------|
D-------------|-------------|--------------|---------------|

                    breve
                      ?      CVII------------|    CVII--|
E-10--10------|-------------|-------------|-7---0-------|
B-------------|-------------|-------7---7-|-------7---7-|
G---7---------|-7---7-------|-7---7---7---|---------7---|
D-------0-----|---0---------|---9---------|---9---9-----|
A-------------|-------------|-------------|-------------|
D-------------|-------0-----|-9-----------|-------------|
                             mp               3

 CVII--|       CVII----------------|
E-7---7-14--0-|-7---7-10----|-9---9-7---7-|-5---5-3---3-|
B---7---------|---7-----7---|---7-----5---|---3-----2---|
G---------11--|-7-----------|-------------|-------------|
D-------------|-------9---9-|-7-----5---5-|-4-----2-----|
A-------------|-------------|-------------|-------------|
D-------------|-------------|-------------|-------------|
        4 1                           cresc.<

               CII------------------------|
                p m i p m i
E-2---2-0---0-|-------------|-------------|-------------|
B---0---------|---3-----3---|---2-----2---|---0-----0---|
G---------0---|-------------|-------------|-------------|
D-0-----------|-----4-5---4-|-----4-5---4-|-----0-2---0-|
A-------4-----|-2-----------|-0-----------|-------------|
D-------------|-------------|-------------|-5-----------|
                f


E-------------|-------------|-------------|-------------|
B-------------|---3-----3---|---2-----2---|---0-----0---|
G---3-----3---|-------0-----|-------0-----|-------------|
D-----0-2---0-|-----4-----4-|-----4-----4-|-------2-----|
A-------------|-2-----------|-0-----------|-----5-----5-|
D-4-----------|-------------|-------------|-5-----------|
    2 3         p         2   3   4 1

                    breve
                      ?
E-------------|-------------|
B-------------|-------------|
G---3-----3---|-------------|
D-------2-----|-------------|
A-----5-----5-|-2-----2-----|
D-4-----------|-------------|


       CII------------------|
E-------------|-------------|-0---0-3p2-0-|-------0---0-|
B-------------|-------2---2-|---0---------|---------2---|
G-------2---2-|---------2---|-------------|-2p0-2-------|
D---------2---|-5p2-5-------|-------------|-------------|
A-4p0-4-------|-------------|-------------|-------------|
D-------------|-------------|-------------|-------------|
                4 1                         poco rit.

 a tempo
E-------2---2-|-5---0-------|---5p0-3p2-0-|
B---------3---|-------3-----|-------------|
G-------------|---2---------|-2-----4-----|
D-4p0-4-------|-------4p2-4-|-------------|
A-------------|-------------|-------------|
D-0-----------|-------------|-------------|
 f


E-------------|---5p0---3---|---5p0---2---|---5-----0---|
B-------0-----|-------------|-------------|-----3-------|
G---2---------|-------2---2-|-------2---2-|-------2---2-|
D-----2-5p4-2-|-------------|-------------|-------------|
A-0-----------|-0-----------|-0-----------|-0-----------|
D-------------|-------------|-------------|-------------|



E---5---------|-------2---2-|-5---0-------|-14--14-17--0-|
B-----3-------|---------3---|-------------|---15---------|
G-------------|-------------|---2---------|----------14--|
D-------------|-4p0-4-------|------<12>---|--------------|
A-0-----------|-------------|-------------|--------------|
D-------0-----|-------------|-------------|--------------|



E-10--0-5---0-|-------------|-------5---5-|-9-----5-----|
B-------------|-3-----3-----|-7---7---7---|-----9-------|
G---7-----2---|-------------|---6---------|---7-------6-|
D-------------|-4-----4-----|-4-----------|---------4---|
A-------------|-------------|-------------|-------------|
D-------------|-0-----0-----|-------------|-------------|
                           mf 4 3   2       4 1 3 2   3
                              1

      CII-------------------------|       CII----------|
E-------------|-------2---2-|-------------|-------2---2-|
B-0-----------|-2---2---2---|-2---2-0---0-|-2---2---2---|
G-----1-2-----|---2---------|---2-----1---|---2---------|
D---0-------4-|-------------|-4-----4-----|-------------|
A---------4---|-------------|-------------|-------------|
D-------------|-------------|-------------|-4-----------|
                                    4 1     3

 CII---|       CII-----------------|
E-------------|-------2---2-|-------------|-------2---2-|
B-2---2-0---0-|-2---2---2---|-2---2-0---0-|-2---2---2---|
G---2-----0---|---2---------|---2-----0---|---0---------|
D-------------|-------------|-------------|-------------|
A-------------|-------------|-------------|-------------|
D-4-----5-----|-0-----------|-0-----5-----|-2-----------|


               a tempo
E-------2---2-|-------2---2-|-5---0-------|---5p0-3p2-0-|
B-2---2---2---|---------3---|-------3-----|-------------|
G---0---------|-------------|---2---------|-2-----4-----|
D-------------|-4p0-4-------|-------4p0-4-|-------------|
A-------------|-------------|-------------|-------------|
D-1-----------|-0-----------|-------------|-------------|
 poco rit.     f


E-------------|---5p0---3---|---5p0---2---|---5-----0---|
B-------0-----|-------------|-------------|-----3-------|
G---2---------|-------2---2-|-------2---2-|-------2---2-|
D-----2-5p4-2-|-------------|-------------|-------------|
A-0-----------|-0-----------|-0-----------|-0-----------|
D-------------|-------------|-------------|-------------|



E---5---------|-------2---2-|-5---0-------|-14--14-17--0-|
B-----3-------|---------3---|-------------|---15---------|
G-------------|-------------|---2---------|----------14--|
D-------------|-4p0-4-------|------<12>---|--------------|
A-0-----------|-------------|-------------|--------------|
D-------0-----|-------------|-------------|--------------|
                                            1 2    4 1
                                            accel.

E-10--0-5---0-|-----0-----0-|------)10----||
B-------------|-3-----------|------(7-----||
G---7-----2---|-------2-----|------)7-----||
D-------------|---0---------|------(0-----||
A-------------|---------0---|-------------||
D-------------|-------------|-0-----------||
                              f


Добавлено: 13.04.2012
Другие материалы по этой песне:
  • Аккорды и текст

Страница создана 13.04.2012
http://primanota.ru/jorge-morel/sonatina-3-allegro-chords.htm
Привет, Гость.
Предлагаем пройти революционный курс по гитаре.
Подарок от PrimaNota.Ru, забирай!