PrimaNota.ru - самый крупный в мире бесплатный архив песенных текстов, аккордов, табулатур и нот


Jorge Morel - Sonatina - 1 - Allegretto - таба, видео

Регистрация Запомнить меня
Войти через:  Facebook Google Twitter Vk Yandex Mail.ru

Jorge Morel - Sonatina - 1 - Allegretto - таба, видео

Печатать
Просмотров: 163
Уроки эстрадного вокала в Санкт-Петербурге
Sonatina I by Jorge Morel

Tablature by Alex Teixeira (rokstar20@earthlink.net) - August 2002

This is a fun piece, and it flows very nicely from beginning to end. The chords
accentuate the natural resonance of the instrument, and I've found it will make
any guitar sound beautiful. It is the first of the three parts of his Sonatina,
all of which are worth learning.

The piece is in 6/8 time. I did not indicate the duration of the notes, so I
would suggest listening to a recording.

Tuning - DADGBE


  Allegretto

  CII--|
E-)2-----2-----|-2-----------|-------------|-------0-----|
B-(3-3-----3---|---3---------|-3-----0-----|-3-----------|
G*)2---2-----2-|-----2-------|---0---3-0---|---0---3-0---|
D-(0-----------|-------4p0---|-----4-----4-|-----4-----4-|
A*)0-----------|-----------4-|-2-----------|-2-----------|
D-(0-----------|-------------|-------------|-------------|
 mf                            2   3 0   3
                               1     2

E-2-----------|-------------|-------------|-------------|
B---3---0-----|-------------|-0-----------|-0---------2-|
G-------3-0---|-------------|---0---0-----|---0---0-----|
D-----4-----4-|-2p0---------|-----4-3-0---|-----4-3-0-2-|
A-2-----------|-----4-5p4-2-|-----------4-|-------------|
D-------------|-------------|-5-----------|-5-----------|
                              0   3 2   3
                              4

E-------3-----|-------------|-------------|-------3-0-3-|
B-5-2-5---5-2-|-0-----------|-0---------2-|-5-2-5-------|
G-------3-----|---0---0---3-|---0---0-----|-------3-0-3-|
D-5-2-5---5-2-|-----4-3-0-2-|-----4-3-0-2-|-5-2-5-------|
A-------------|-------------|-------------|-------------|
D-------------|-5-----------|-5-----------|-------------|
                0         2                       1
                4         1                       1

  cresc.<              dim.>
E-6-3-6-9-6-9-|-12-9-12-6-9-3-|-6-0-3-------|-------------|
B-------------|---------------|-------2-5-2-|-0-----------|
G-6-3-6-9-6-9-|-12-9-12-6-9-3-|-6-0-3-------|---0---0---3-|
D-------------|---------------|-------2-5-2-|-----4-3-0-2-|
A-------------|---------------|-------------|-------------|
D-------------|---------------|-------------|-5-----------|
  4 1   4 1     4
  3 1   3 1     3

                                           CII---|
E-------------|-------3-0-3-|-6p3-0-3p0-3-|-2-----3---0-|
B-0---------2-|-5-2-5-------|-------------|---2---------|
G---0---0-----|-------3-0-3-|-6-----3-----|-----5-4-3---|
D-----4-3-0-2-|-5-2-5-------|-------------|-------------|
A-------------|-------------|-------------|-------------|
D-5-----------|-------------|-------------|-0-----------|
                              4 1 0 3           4 2 1
                              3     2             3

 CII--|
E-2-----3---0-|-5-----3---0-|-5-----3---0-|-7-----------|
B---2---------|---2---------|---2---------|---7-6-5-----|
G-----5-4-3---|-----5-4-3---|-----5-4-3---|---------7-6-|
D-------------|-------------|-------------|-------------|
A-------------|-------------|-------------|-------------|
D-0-----------|-0-----------|-0-----------|-0-----------|
                4     2 1                   4 3 2 1 3 2
                      3

  CV--| CIII---------|
E-5-----------|-3-----------|-------------|-------------|
B---5---------|---3---------|-------------|-------------|
G-----7-6-4-3-|-----5-3-2p0-|-------0-----|-------0-----|
D-------------|-------------|-4---------2-|-4---------2-|
A-------------|-------------|---4-3-2-1---|---4-3-2-1---|
D-------------|-------------|-0-----------|-0-----------|
      3 2 2 1           1     4 3 2 1 1 2

 ____________________________  mp
 |1st ending
E-------------|-------------|
B-------------|-------------|
G-------------|------------*|
D-4p0---4p0---|-4p0---4p0---|
A-----0-----0-|-----0-----0*|
D-0-----------|-------------|

 _____________
 |2nd ending
E-------------|-------5---5-|-10----10------|-10----10-----|
B-------------|-3---3---3---|-----10-----10-|-----10----10-|
G-------2---2-|---2---------|---7------7----|---7-----7----|
D-0---0---0---|-------------|---------------|--------------|
A---0---------|-------------|---------------|--------------|
D-0-----------|-------------|---------------|--------------|
                      4 1 3   4 1 3    rit.

  A tempo
E-10----------|-12----10----|-10----------|-12----10----|
B-------10-10-|-----10---10-|-------10-10-|-----10----8-|
G*----7---7---|---------7---|-----7---7---|---------5---|
D---10--------|---10--------|---9---------|---9---------|
A*------------|-------------|-------------|-------------|
D-------------|-------------|-------------|-------------|
  4 2   3       4             4 2   3               1 3
 dolce

                                                  cresc.<
E—8-----------|-10----8-----|-8-----------|-10----8-----|
B-------8---8-|-----8-----8-|-------8---8-|-----8-----5-|
G-----5---5---|---------5---|-----5---5---|-------------|
D---8---------|---8---------|---7---------|---7-----7---|
A-------------|-------------|-------------|-------------|
D-------------|-------------|-------------|-------------|
  4 2           4               2   3       4     4

                                   dim.>
E-5-----2-----|-7-----------|-2-----0-----|-2-----0-----|
B-----2-------|-------7-----|-------------|-------------|
G---0-------6-|-----6-----4-|-----0-----3-|-----3-----3-|
D-------------|---------0---|-------------|-------------|
A---------0---|-------------|---4-----4---|---4-----4---|
D-------------|---0---------|-------------|-------------|
  4         3   4             1 3

E-------------|-------------|-------------|-------------|
B-0-----0-----|-2-----0-----|-------0-----|-2-----0-----|
G-----0-------|-------------|-2-----------|-------------|
D---0-------3-|-----3-----3-|-----3-----3-|-----3-----3-|
A-------------|-------------|-------------|-------------|
D---------5---|---5-----5---|---5-----5---|---5-----5---|
          4 2   1
                    __________               __________
                   |1st ending              |2nd ending
E-5-----7-----|    -9-----9-----|    (to    -9-----7-----|
B-----6-----6-|    -----6-----6-|    coda)  -----6-----6-|
G---0-----0---|    ---0-----0--*|      @    ---0-----0---|
D-------------|    -------------|           -------------|
A-------------|    ------------*|           -------------|
D-------------|    -------------|           -------------|
  1   2 3           4

 Lento Espressivo
  CII--|        CII--|
E-2-----3---0-|-2-----5p3-2-|-0-----3p2-0-|-------2p0---|
B---2---------|---2---------|-------------|-3---------3-|
G-----5-4-3---|-----5-------|---3---------|---4---------|
D-------------|-------------|-----0-------|-----0-------|
A-------------|-------------|-------------|-------------|
D-0-----------|-0-----------|-0-----------|-0-----------|
        2 1         3 4 1 1     2   3 1     2 3   1
        3

                             Meno Tempo
E-------------|-------------|-0-----------|-0-----------|
B-0-----2p0-2-|-0-----2p0-2-|-------3-----|-------3-----|
G---0---------|---0---------|-----0-----0-|-----0-----0-|
D-----4-3-----|-----4-3-----|---4-----4---|---4-----4---|
A-------------|-------------|-------------|-------------|
D-5-----------|-5-----------|-2-----------|-------------|
      3 1         rit.              2
        2

E-0-----------|-2-----------|-5-----3-----|-2-----0-----|
B-------3-----|-------3-----|-----0-----0-|-----0-----0-|
G-----4-----4-|-----4-----4-|---0-----0---|---0-----0---|
D---0-----0---|---0-----0---|-------------|-------------|
A-------------|-------------|-------------|-------------|
D-4-----------|-------------|-2-----------|-------------|
  3   4         1             4     2       2

E-------------|-------------|-0-----0---2-|-0-----0---2-|
B-3-----0-----|-------------|---0-----3-2-|---0-----3-2-|
G---0---3-0---|-------------|-----3-0-----|-----3-0-----|
D-----4-----4-|-3h4-5-4p2-0-|-------------|-------------|
A-2-----------|-------------|-4-----------|-4-----------|
D-------------|-------------|-------------|-------------|
  2   3                       3   2   2 1
  1                                     1

        CII--|
E-------------|--------0-2-3-|-5-----3---0-|-2-----0-----|
B-0-----2-----|--------------|---2---------|---0---4-----|
G---0-----2-4-|s7p6-4h6------|-----2-4-0---|-----1-------|
D-----4-3-----|--------------|-------------|-------------|
A-------------|--------------|-------------|-------------|
D-5-----------|--------------|-0-----------|-2-----------|
  4     2 1 3            1 2   4     2       3
                                     3       2

  CIX--|          CIX--|
E-9-----10------|-9------10------|-12--------------|
B---9--------12-|---9---------12-|---12-11-10------|
G—---12-11-10---|-----12-11-10---|-----------12-10-|
D---------------|----------------|-----------------|
A-0-------------|-0--------------|--0--------------|
D---------------|----------------|-----------------|
         2    4                     4 3  2  1 3  3
         3

 CVIII-|        CVI---------------|  cresc.<       CVI---|
E-8------------|-6-----------|-6-----------|-----0---6-8-|
B---8----------|---6-------6-|---6---------|---3---6-----|
G—----10-9-7h9-|-----9-7h9---|-------------|-3-----------|
D--------------|-------------|-------0h2-3-|-------------|
A--------------|-------------|-----7-------|-------------|
D--------------|-------------|-------------|-------------|
      3  2 2 4       4 2 4         2   1 2   3 4     1 3

  CVII-|        CII--|
E-10----8---0-|-2-----0---0-|-------------|
B---7---------|---3-----3---|-3-----------|
G-----7-9-7---|-----2-5-----|---2---------|
D-------------|-------------|-----0-------|
A-------------|-------------|-------------|
D-0-----------|-0-----------|-0-----2-0-2-|
  4     2 1             4
  f     3

E-------------|-----------5-|----10----10-|----10----10-|
B-------------|-----3---3---|--10----10---|--10----10---|
G-----------2-|---2---2-----|-7-----7-----|-7-----7-----|
D-----0---0---|-0-----------|-------------|-------------|
A---0---0-----|-------------|-------------|-------------|
D-0-----------|-------------|-------------|-------------|
                       2 4   1 3 4  rit.

 Lento Espressivo
E-10----------|-------8-----|-6-----------|------4------|
B-------------|-------------|-------------|-------------|
G-------8-----|-----------5-|-------7-----|-----------5-|
D-----0---0---|-0---0---0---|-0---0---0---|-0---0---0---|
A-------------|-------------|-------------|-------------|
D-0-----------|-------------|-------------|-------------|
  4     1             4   1   2     3            2    3
 mp

E-2-----------|-------------|-14----------|-------12-----|
B-------3-----|-------------|-------------|--------------|
G-------------|-------------|-------12----|-----------11-|
D-0---0---0---|-0---0---0---|-----0---0---|-0---0---0----|
A-------------|-------------|-------------|--------------|
D-------------|-------------|-0-----------|--------------|
                              4     2             4   3

                              CVIII----------------------|
E-9-----------|-------8-----|-)8-----------|-------------|
B-------------|-------------|-(8-----------|-------------|
G-------12----|-----------8-|-)8-----------|-------------|
D-----0---0---|-0---0---0---|-(0---0---0---|-0---0---0---|
A-------------|-------------|-)0-----------|-------------|
D-------------|-------------|-(0-----------|-------------|
  1     4             1   1

E-10----------|-------8-----|-6-----------|------4------|
B-------------|-------------|-------------|-------------|
G-------8-----|-----------5-|-------7-----|-----------5-|
D-----0---0---|-0---0---0---|-----0---0---|-0---0---0---|
A-------------|-------------|-------------|-------------|
D-------------|-------------|-------------|-------------|

E-)2-----------|-------------|
B-(3-----------|-------------|
G-)2-----------|-------------|
D-(0---0---0---|-0---0---0---|
A-)0-----------|-------------|
D-(0-----------|-------------|

CII--|
E-2-----3---0-|-2-----5p3-2-|-0-----3p2-0-|-------2p0---|
B---2---------|---2---------|-------------|-3---------3-|
G-----5-4-3---|-----5-------|---3---------|---4---------|
D-------------|-------------|-----0-------|-----0-------|
A-------------|-------------|-------------|-------------|
D-0-----------|-0-----------|-0-----------|-0-----------|
                    3 4                        rit.

Tempo Primo
E-------------|-------------|-------------|-------------|
B-0-----2---2-|-0-----2---2-|-0-----------|-0-----------|
G---0---2---2-|---0---2---2-|---0---0---0-|---0---0---0-|
D-----4-3-0-3-|-----4-3-0-3-|-----0-3---3-|-----0-3---3-|
A-------------|-------------|-------4-0-4-|-------4-0-4-|
D-5-----------|-5-----------|-5-----------|-5-----------|
 mf     ponticello

E-------------|-------------|-------------|-------------||
B-------------|-------------|-------------|-------2-3-5-||
G-------------|-------------|-------------|-0-2-4-------||
D-------------|-------------|-------0-2-4-|-------------||
A-2h4-2-0h2-4-|-0h2-4-2h4-2-|-0-2-4-------|-------------||
D-------------|-------------|-------------|-------------||
                              cresc.        D.C. al Coda

Coda:
Lento
E-10----0-----|-12----<19>----|-10----0-----|-12----<19>---|
B-----10---10-|-----10--------|-----10---10-|-----10-------|
G-------------|---------------|-------------|--------------|
D---10---10---|---10----------|---9----9----|---9----------|
A-------------|---------------|-------------|--------------|
D-0-----------|---------------|-0-----------|--------------|
  3 1 2         4               3 1 2

                                    accell----|
               CVIII--------|CVII--|       CII---|
E-10----0-----|-12---10*----|-10----8---0-|-2-----0---0-|
B-----8-----8-|-----8-------|---7---------|---3-----3---|
G-------------|-------------|-----7-9-7---|-----2-5-----|
D---8-----8---|---8---------|-------------|-------------|
A-------------|-------------|-------------|-------------|
D-0-----------|-------------|-0-----------|-0-----------|
  4 1 2         4    3        4     2 1     4     4 2
                                    3

E-------------|-)2-----------||
B-3-----------|-(3-----------||
G---2---------|-)2-----------||
D-----0-2p0-2-|-(0-----------||
A-------------|-)0-----------||
D-0-----------|-(0-----------||
Добавлено: 06.06.2012
Другие материалы по этой песне:
  • Аккорды и текст

Страница создана 06.06.2012
http://primanota.ru/jorge-morel/sonatina-1-allegretto-chords.htm
Привет, Гость.
Предлагаем пройти революционный курс по гитаре.
Подарок от PrimaNota.Ru, забирай!