PrimaNota.ru - самый крупный в мире бесплатный архив песенных текстов, аккордов, табулатур и нот


Jorge Morel - Romance Criollo - таба, видео

Регистрация Запомнить меня
Войти через:  Facebook Google Twitter Vk Yandex Mail.ru

Jorge Morel - Romance Criollo - таба, видео

Печатать
Просмотров: 192
Уроки эстрадного вокала в Санкт-Петербурге
Авторы музыки: Jorge Morel

Romance Criollo - Jorge Morel (b. 1931)

Transcribed by Tim Lutz (Palutzce2@cs.com)

**This is one of my favorite songs ever written.
  Full of passion and all that good stuff. I couldn't 
  find the tab for this song anywhere so I did it myself 
  plus wanted to give back to the site that provided me with
  so many tabs. This is my first transcription so I'm sure I 
  screwed something up. Anyway, learn this song and bust it 
  out. I suggest listening to David Russell's cd "Aire Latino" 
  first. Damn good song.**

Time signature: 6/8

Tuning-D A D G B E

  Moderato
||-----------|-----------|-----------|-----------|
||-4-----3---|-4-----3---|-4-----3---|-4-----3---|
||-5-----5---|-5-----5---|-3-----3---|-3-----3---|
||-----0---0=|==---0---0=|==---0---0=|==---0---0=|
||-----------|-----------|-----------|-----------|
||-----------|-----------|-----------|-----------|


|-----------|-------------|-----------|-------------|
|-4-----3---|-4-----3-----|-4-----3---|-4-----3-----|
|-5-----5---|-5-----5-----|-3-----3---|-3-----3-----|
|==---0---0=|==---0---0---|-----0---0=|==---0---0---|
|-----------|-------------|-----------|-------------|
|-----------|-----------0=|==---------|-----------0=|


       CVIII       CVII
|-10-----8----|-0----------|------------|------------|
|-------------|-------7----|-10-----8---|-6------4---|
|--------8----|-7-----7----|-7------7---|-5------3---|
|----------10-|-8---7---10-|-8------8---|-7------5---|
|------9------|------------|------------|------------|
|==-----------|------------|-0----5---0=|==----0---0-|
   4    2 1 3   0   1 1 4    3    1 4
                1            1      2
                2            2      3


|-----------|-------------|-----------|-------------|
|-4-----3---|-4-----3-----|-4-----3---|-4-----3-----|
|-5-----5---|-5-----5-----|-3-----3---|-3-----3-----|
|-----0---0=|==---0---0---|-----0---0=|==---0---0---|
|-----------|-------------|-----------|-------------|
|-----------|-----------0=|==---------|-----------0=|


     CVIII               
|-10---8------0-|-8---6-----5-|-5-----3-----|-------------|
|---------------|-------------|-------------|-------------|
|------8----7---|-----5---5---|-----3===2-0-|---3---2---0-|
|--------10-8---|-------7-4---|---0---------|-0---0---0---|
|----9----------|---6---------|-------------|-------------|
|==-------------|-0-----------|-0-----------|-5---3---1---|
   4 2 1 3  1     4 2 3 4 2 4       1 2       3 1 3 2 1 
            2             1


|-------------|-------------|-------------|--------------|
|-3---1-------|-1-----------|-------------|--------4-----|
|-------2-----|-----3-----2-|-2-----0-----|--------3-2-0-|
|---0-----1-0-|---0---1-----|-----0---3-1-|-0------------|
|-------------|---------3---|---1---------|--3-1-0-------|
|-0-----------|-0-----------|-0-----------|--------------|
  4   1 2 1     1   4 1 3 2                        4
                                                   3


                                  CIII
|-------------|---------6-5-|-3-----5-3-5-|-6---8---10--|
|-3---1---4-1-|-7---4-------|-----3---3---|---------11--|
|-------2-----|-------5-----|-------5---5-|-7---10------|
|---0====-----|---0---------|---0---------|---0---0---0=|
|-------------|-------------|-------------|-------------|
|-0-----------|-0-----------|-0===========|==-----------|
  4   1 2 4 1                       4       2   1   2
                                    3       3   3   3


                           CIII
|-10-------|-11----------|-5-----3---|-6-5-8p6p5-3-2=|
|------3---|-10----------|-3-----3---|---------------|
|-11---5---|--------11---|-3-----3---|---------------|
|----0---0=|==--0---10-0=|==-0-----0-|---------------|
|==--------|-------------|-----------|---------------|
|------0===|==----0------|-----0-----|---------------|
  2    1     4      1
  3    3     3      2


      CV                  CIII-----------------
|==-----5---|-6-----2---|-5-----3-----|-5-----3-----|
|-------7---|-7-----3---|-3-----3-----|-3-----3-----|
|-----5-----|-8-----5---|---3-----3---|---3---------|
|---0-----0=|==-0-----0-|-----0-----0-|-----0---0---|
|-----------|-----------|-------------|-------------|
|-0---------|-----0-----|-------------|-----------0=|
              1     1     3 1
              2     2     1
              3     4


|-6-----5-----|-6-----5-----|-8-----6-----|-8-----8-----|
|-3-----3-----|-3-----3-----|-8-----8-----|-8-----6-----|
|---5-----5---|---5---------|---7-----7---|---7---------|
|-----0-----0-|-----0---0---|-----0-----0-|-----0---0---|
|-------------|-------------|-------------|-------------|
|=============|===========0=|=============|===========0=|
  4 2   3
  1


     CVIII
|-10---8------0-|-8---6-----6-|-5-----3-----|-------------|
|---------------|-------------|-------------|---4---3---1-|
|------8----7---|-----5---5---|-----3===2-0-|-3---2---0---|
|--------10-8---|-------7-4---|---0---------|-------------|
|----9----------|---6---------|-------------|-------------|
|---------------|-0-----------|-0-----------|-5---3---1---|
         3  1     4 2 3 4 2 4                 1 2 2 4 1 2
            2             1                   3   3


|-------------|-------------|-------------|-------3-5-6-|
|-3---1-------|-------------|-------------|-3-5-7-------|
|-------------|-5---3-----3-|-2-----0-2-3-|-------------|
|-----1---0-1-|-------------|---1-0-------|-------------|
|-------3-1---|-----3-0-3---|-------------|-------------|
|-0-4---------|-0-1-----4---|-0-----------|-------------|
                                      1 1   2 3 4 1 3 4


|-10---------11-|-10---------8-|-6-----------|-------------|
|---------------|--------------|-------------|-------------|
|-----8---------|-----8--------|-----5-3-2-0-|-------------|
|-------10-7----|-------10-7---|---0---------|-1-0---------|
|---9-----------|---9----------|-------------|-----1-------|
|-0-------------|-0------------|-0-----------|-------5-3-1-|
  4                              4   2 2 1     1     4 2 1                              


|-------------|-------------|-------------|-------------|
|---------3---|---------3---|---------3---|---------3---|
|-------2-----|-------2-----|-------0-----|-------0-----|
|-----0-------|-----0-------|-----0-------|-----0-------|
|---3-------3-|---3-------3-|---1-------1-|---1-------1-|
|-0-----------|-0-----------|-0-----------|-0-----------|
    2   1 3                     1     3


|-------------|-------------|-------------|-------------|
|---------3---|---------1---|-------------|---3---4p3-6-|
|-------0-----|-------0-----|-2---0-3p2-5-|-3---5-------|
|-----0-----4-|-----0-----4-|---0===------|-------------|
|---0---------|---0---------|-------------|-------------|
|-0-----------|-0-----------|-0-----------|-------------|
                              2     2 1 4     1 3 2 1 4


                     CV------------------
|-------------|-------5-----|-6-----8-6-5-|-6-----0-----|
|-4-----3-----|-7-----------|-------------|-------------|
|-------------|-------5-7-8-|-7-6-7-8-7-5-|-7-----------|
|-----0-4-3-4-|-7-6-7-------|-------------|---5-7-8-7-5-|
|---3---------|-------------|-------------|-------------|
|-0-----------|-------------|-------------|-------------|
  2 1   2 1     4       3 4   2     4 2     2 1 3 4 3 1
        3       3             3     3 3     3


|-------------|-------------|-3-----------|-3-----------|
|-7-----------|-7-----------|-------3-----|-------3-----|
|-5-----7-----|-5-----7-----|-3-----------|-3-----------|
|---0-----0---|---0-----0---|---0-1==-0---|---0-1==-0---|
|-----6==-----|-----6==-----|-------------|-------------|
|-----------0-|-----------0-|-----------0-|-----------0=|
  4   1 4                     4     4
                              3


|-10-----------|-------------|---3---5---6s|-8---6---5---|
|--------------|---7---7---7-|-------------|-------------|
|------7---7-5-|-8---7---5---|---3---5---7s|-8---7---5---|
|----7---5-----|-------------|-----0---0===|===0---0---0=|
|--------------|-------------|-------------|-------------|
|==============|==-----------|-0-----------|-------------|
  4      1 3 1   4 3 4   1       1   4   2   4   2   2
                                 1   3   3   3   3   1


|-6---5---3---|-2-----8-----|-------8-----|-------6-----|
|-------------|-------7-----|-7-----7-----|-8-----8-----|
|-7---5---3---|-2---8==-7---|-----8==-7---|-----8==-7---|
|==-0---0---0-|---0-------0-|-7-0-------0-|-8-0-------0-|
|-------------|-------------|-------------|-------------|
|-------------|-------------|-------------|-------------|
                2   3 4 1     2   3 4 1     2     1
                1     2       1     2             4


|-------10----|-10--8------0-|-8---6-----6-|-5-----3-----|
|-8-----8-----|--------------|-------------|-------------|
|-----8==-----|-----8----7---|-----5---5---|-----3==-2p0-|
|-8-0-----0---|-------10-8---|-------7-4---|---0---------|
|-------------|---9----------|---6---------|-------------|
|-----------0=|==------------|-0-----------|-0-----------|
                4 2 1 3  1
                    1    2


                                                 CIII--
|-------------|-------------|---5---6-8-|-------------|
|---------6-4-|-3-----------|-----------|-------------|
|-3p2-5-3-----|---------2-5-|-8---7---8-|-----0-2-3-5-|
|-------------|---0-1-4-----|-----------|---0---------|
|-------------|-------------|-----------|-------------|
|-------------|-0-----------|-----------|-0-----------|
  2   4 1 4 2   2   1 4 1 4   4 1 2 3 4         1 1 3
                                      3


 ----------      CVIII                       CV--------
|---3---5-6-|-10--8-11---8-|-10--8-11---8-|-10--6-8---5-|
|-6---4---3-|--------------|--------------|-------------|
|-----------|-----8--------|-----8--------|-----7-8-5-8-|
|-----------|-------10-7---|-------10-7---|---5---------|
|-----------|---9----------|---9----------|-------------|
|-----------|-0------------|-0------------|-0-----------|
  4 1 2 3 4   4 2   4  1 2                  4 1 2 4 1 1
          1         3                           3 3   4


|-6-----------|-----------|-------------|-----------|
|-----8-7-----|-4-----3---|-4-----3-----|-4-----3---|
|-7-----5-----|-5-----5---|-5-----5-----|-3-----3---|
|---8-----0---|-----0---0=|==---0---0---|-----0---0=|
|-------------|-----------|-------------|-----------|
|-----------0-|-----------|-----------0=|-----------|
  1 3 4 1 
  2     3


|-------------|-----------|-------------|---------------|
|-4-----3-----|-----------|-------------|---------------|
|-3-----3-----|---------0-|-2-----------|-----3h5p3-2-3-|
|==---0---0---|---0-1-4---|---4p0-1-----|---0-----------|
|-------------|-0---------|---------3p0-|---------------|
|-----------0=|==---------|-------------|-5======-------|
                                          3   1 4 1 1


|-------------|---------------|-------------|---5---6---8--|
|-----3-----3-|---------------|-----1-----1-|---7---8---10-|
|-2-----2-----|-----1h3p1-0-1-|-0-----0-----|--------------|
|---0-----0---|---0-----------|-------------|-----0---0----|
|-------------|---------------|---3-----3---|--------------|
|-4======-----|-3======-------|-1=====------|-0------------|
  1   2         3   1 4 1   2   1 4 2
  3


|-10---11---13---|-11-----------|-10----------|-11----------|
|-11---13---15---|-13-----------|-13----------|-11----------|
|----------------|--------------|-------------|-------------|
|----0----0----0-|---0-10-----0=|==-0-7-----0=|==-0-8-----0=|
|----------------|-------11h12--|-------8h9---|-------9h10--|
|----------------|--------------|-------------|-------------|
  1    1           2              1   1 2 3     4   1 2 3
  2    3           4              4             3


|-10----------|-------------|-------------|-------------|
|-11----------|-4-----------|-3-----------|-4-----------|
|-----7-----0-|-5-----------|-5-----------|-3-----------|
|==-0---7h8---|-------------|-------------|-----1-------|
|-------------|-----3-------|-----0-------|-------------|
|-------------|---0---6s7-0-|---0---3h4-0-|---0---4s5-0-|
  2   2 1 3           4 4           1 3     4   1 4 4
  3                                         3   

|-------------|-------------|---------|---------|---------5=|
|-3-----------|-------------|---------|---------|-----------|
|-3---------0-|-0h3-2-0-----|---------|---------|-----3-----|
|-----0-------|---------3-1-|-1---0---|-1---0---|-1-0---4---|
|-------0h1---|-------------|---3---0-|---0-----|-----------|
|---0---------|-------------|-4-------|-4-----0-|-5---------|
  4                           1 3                 1   2 3
  3                           4                   4


|==-3---------|-----6-5-----|-----6-5-----|-----5-3-----|
|-------4---3-|-4-----------|-4-----------|-3-----------|
|-----3-------|-5-----5-----|-5-----5-----|-3-----3-----|
|-0-------0===|===0=====0---|---0-----0---|---0=====0---|
|-------------|-------------|-------------|-------------|
|-----5-------|-----------0=|==---------0=|==---------0=|
    1 1         2   4                       1   3
      3         3                           1


|-------------|-------------|-------------|-------------|
|-----4-3-----|-4-------3---|-4-------3---|-4-------3---|
|-3-------3---|-5-------5---|-5-------5---|-3-------3---|
|---0-------0-|-------0-----|-------0-----|-------0---5-|
|-------------|-------------|-------------|-------------|
|==-----------|---0-1-----0-|---0-1-----0-|---0-5-------|
      2         3   1   2                   2   3     3
                4       4                   1


|---10-8-10-6--8-|-5-----------|-------------|-------------|
|----------------|-------------|-------------|-------------|
|----------------|---5-7-8p7-5-|-------------|-----0-2h3-5-|
|-8----7----5----|-0======-----|-7-----------|---0---------|
|----------------|-------------|---0-1-3p1-0-|-------------|
|----------------|-------------|-------------|-5-----------|
  1 4  2 4  2  4   1 1 3 4       3   1 3       4     1 2 4
            1


|-----2-3h5p3p2h3-|-6h8p6p5h6-10h11p10-8-10-11-|-10----------|-11---------|
|-3-5-------------|----------------------------|---------3---|-11-----7---|
|-----------------|----------------------------|---------5---|--------5---|
|-----------------|----------------------------|----0------0=|===0------0=|
|-----------------|----------------------------|-------------|------------|
|-----------------|----------------------------|------0===---|-----0===---|
  2 4 1 2 4 2 1 2             3  4  3  1 3  4                  4
                                                               3


|-5-----3---|-6-5-8p6p5-3-2=|==-----5---|-6-----2---|
|-3-----3---|---------------|-------7---|-7-----3---|
|-3-----3---|---------------|-----5-----|-8-----5---|
|==-0-----0-|---------------|---0-----0=|===0-----0-|
|-----------|---------------|-----------|-----------|
|-----0===--|---------------|-0---------|-----0===--|


|-5-----3-----|-5-----3-----|-3-----1-----|-------------|
|-3-----3-----|-3-----3-----|-1-----1-----|-6-----4-----|
|---3-----3---|---3-----3---|---2-----2---|-3-----3-----|
|-----0-----0-|-----0-----0-|-----0-----0=|===0-----0---|
|-------------|-------------|-------------|-------------|
|-------------|-------------|-------------|-----0=====0-|
                                            4     2
                                            1     1


|-----------|-------------|-----------|-------------|
|-4-----3---|-4-----3-----|-4-----3---|-4-----3-----|
|-5-----5---|-5-----5-----|-3-----3---|-3-----3-----|
|-----0---0=|==---0---0---|-----0---0=|==---0---0---|
|-----------|-------------|-----------|-------------|
|-----------|-----------0=|==---------|-----------0=|


                                             CIII
|-10-----------|-------------|-------------|-------------|
|--------------|-------------|-------4p3-6-|-4p3---------|
|-----8--------|-----------2-|-----3-------|-----3---3---|
|-------10-7---|-0-------0---|---0---------|-------5---3-|
|---9--------9-|---3p0-------|-------------|-------------|
|==------------|-------4-----|-5======-----|-------------|
  4 3 1 4  1 3         3   1   3   1 2 1 4


                              CIII
|-------------|---5p3-2-----|-----3-------|-----3-2-----|
|-----3-1p0-1-|-4-------3---|---3---4p3---|---1---3p1-3-|
|---0---------|-----------5-|-3---------3-|-2-----------|
|-1-----------|-------------|-------------|-------------|
|-------------|-------------|-------------|-------------|
|-------------|-------------|-0-----------|-0-----------|
  1   4 2       2 4   1 2 4         2       2 1 4 2 1
                                                  3


   CVIII                            CIII
|--------------|--------------|-------------|-----------3-|
|-----8--------|--------------|-----3-------|---------3---|
|---------10-8-|-----8--------|-------3-----|-------0-----|
|---8---10---8-|---7-----10-0-|---0-----5-0-|-----0-------|
|--------------|-------9------|-------------|---1---------|
|-0------------|-0------------|-0-----------|-0-----------|
        3  4 1     1 2 1 2              3       1     3 4
             1 


|-3-----2-----|-3-----2-----|-5-----3-----|-5-----3-----|
|---1-----1---|---1-----1---|---3-----3---|---3-----3---|
|-----2-----2-|-----2-----2-|-----3-----3-|-----3-----3-|
|-------------|-----0-------|-------------|-----0-------|
|-------------|-------------|-------------|-------------|
|-------------|---------0===|=============|==-------0===|


|-6-----5-----|-6-----5-----|-8-----6-----|-8-----6-----|
|---4-----4---|---4-----4---|---8-----8---|---8-----8---|
|-----5-----5-|-----5-----5-|-----7-----7-|-----7-----7-|
|-------------|-----0-------|-------------|-----0-------|
|-------------|-------------|-------------|-------------|
|=============|==-------0===|=============|==-------0===|
  4 1 2 3                     4 3 2


     CVIII                        CIII
|-10--8------0-|-8---6-----6-|-6-----6---6-|-6-----5-----|
|--------------|-------------|---------3---|-------------|
|-----8----7---|-----5---5---|-----3===----|-5-----5-----|
|-------10-8---|-------7-4---|---0---------|---0-----0---|
|---9----------|---6---------|-------------|-------------|
|==------------|-0-----------|-0-----------|-----0-----0-|
                                   1         4
                                             3 


|-6-----5-----|-----------6-|---10-8-6-5-6-|-------------|
|-------------|---------3---|--------8-7-8-|-7-----------|
|-5-----5-----|-----3-------|-7----8-------|-5---------2-|
|---0-----0---|---0---5-----|--------------|-----0---0---|
|-------------|-------------|--------------|-------------|
|-----0-----0-|-5-----------|--------------|---3---4-----|
                3   1 3 1 4   1 4  2 1       3     3   1
                                   1 3       1


|---8-6-5-4-5-|--------------|-------------|----------6-|
|-------7-6-7-|-5------8-----|-7-----10----|--------3---|
|-5---7-------|-3------6-----|-5-----8-----|-----3------|
|-------------|-----0===---0=|==---0===--0-|---0---5----|
|-------------|--------------|-------------|------------|
|-------------|---0------0---|---0-----0---|-5----------|
  1 4 2 1 1     3      3                     3   1 3 1 4
      3 3 3     1      1 


|-10----------|-------------|-------------|-------------|
|-----3-------|-----3-1p0-1-|-4---------3-|-----3-----3-|
|---0-----0---|---0---------|-------3-----|-2-----1-----|
|-------0-----|-------------|---0-5---0---|---0-----0---|
|-------------|-------------|-------------|-------------|
|-----------0-|-1-----------|-4-----5-----|-4-----3-----|
  4   1         1   4 2       2   3 1   1   1   2 1   4
                              1     3       3     3


                              *see below
|-------------|-----------6-|-----<6>-----15-||
|-----3-------|---------3---|---<3>-------11-||
|-0---------5-|-----3-------|----------------|| END
|---0-----4---|---0---5-----|-<5>---------12-||
|-------0-----|-------------|-------------10-||
|-1-----------|-5-----------|----------------||
  1   3   2 4   3   1 3 1 4               4
                                          3
                                          2
                                          1
Whoa

*Artificial harmonics fretted on 5, 3,& 6 and played above 
 17th, 15th, & 18th frets respectively. 

Добавлено: 10.05.2012
Другие материалы по этой песне:

Страница создана 10.05.2012
http://primanota.ru/jorge-morel/romance-criollo-chords.htm
Привет, Гость.
Предлагаем пройти революционный курс по гитаре.
Подарок от PrimaNota.Ru, забирай!