PrimaNota.ru - самый крупный в мире бесплатный архив песенных текстов, аккордов, табулатур и нот


Jorge Morel - Danza Brasilera - таба, видео

Регистрация Запомнить меня
Войти через:  Facebook Google Twitter Vk Yandex Mail.ru

Jorge Morel - Danza Brasilera - таба, видео

Печатать
Просмотров: 274
Уроки эстрадного вокала в Санкт-Петербурге
Авторы музыки: Jorge Morel

danza brasilera - jorge morel (b.1931)

tabbed by wim
wimiam at yahoo dot com

updated November 2004

For those new to ascii tablature:

   12p8    pull-off
   2h3p2   trill (fast hammer-on and pull-off)
   !5      natural harmonic
   ~       vibrato

   above the tab i have indicated some help with fingering:

   p       i       m       a
 = pulgar, indice, medio,  anular
 = thumb,  index,  middle, ring
   
   these are the (spanish) conventions for the right hand fingering

   the 1 2 3 4 above the tab are recommended left hand fingerings 
   for maximum speed (if you wanna play the piece as fast as morel!)
   1, 2, 3, 4 = index, middle, ring, little fingers

   C3, C8 etc indicate a barre at that fret

anyways, have fun...this is a fantastic piece.
if you like it, be sure to check out 'misionera' by morel.

allegro (tempo di samba) - standard tuning


|-----------------|----------------|-----------------|----------------|
|-5---5---5-5---5-|----5---5-5-5---|-5---5---5-5---5-|----5---5-5-5---|
|-5---5---5-5---5-|----5---5-5-5---|-5---5---5-5---5-|----5---5-5-5---|
|-4---4---4-4---4-|----4---4-4-4---|-4---4---4-4---4-|----4---4-4-4---|
|-0---------------|-0--------------|-0---------------|-0--------------|
|---------0-------|----------0-----|---------0-------|----------0-----|


                                     C1     C3................
|-5---0-0-0---0-|--------------0-3-|-1----0---------|--------------0---|
|-5-----3-----1-|---1----0---1-----|-1------3-3---5-|----5---5---------|
|-5-----4-----2-|----------2-------|-2------4-----4-|----4---4---------|
|-4-----6-----4-|------------------|-0------3-----5-|----5---5---------|
|-0-------------|----------0-------|----------------|-3----------------|
|---------------|------------------|--------3-------|----------0-------|


                                                 C2
|-5---0-0-0---0-|--------------0---|----------------|---------0-------|
|-5-----3-----1-|---1----0---1---4-|-3----3-0-0-----|----3----0-------|
|-5-----4-----2-|----------2-------|-2------1-----2-|----2----1-------|
|-4-----6-----4-|------------------|-3------2-----2-|----3------------|
|-0-------------|----------0-------|-2------------3-|----2----2-------|
|---------------|------------------|--------0-----5-|-------------0---|


                                     C1     C3...............
|-5---0-0-0---0-|--------------0-3-|-1----0---------|--------------0---|
|-5-----3-----1-|---1----0---1-----|-1------3-3---5-|-------5------3---|
|-5-----4-----2-|----------2-------|-2------4-----4-|-----4--------4---|
|-4-----6-----4-|------------------|-0------3-----5-|---5--------------|
|-0-------------|----------0-------|----------------|-3----------------|
|---------------|------------------|--------3-------|----------0-------|


                                                 C2                   2
|-5---0-0-0---0-|--------------0---|----------------|--------------0---|
|-5-----3-----1-|---1----0---1---4-|-3----3-0-0-----|--------1---1-----|
|-5-----4-----2-|----------2-------|-2------1-----2-|------2---2-------|
|-4-----6-----4-|------------------|-3------0-----2-|----2-----------10|
|-0-------------|----------0-------|-2------------3-|------------------|
|---------------|------------------|--------0-----5-|------------------|


  1  3 2  3 1
|-----------8----8-12-p-8----8----0-5-----|-8p5---5---------|--------------|
|---10---10---10------|---10---10-----5---|-----5---5---5---|--------------|
|-9----9--------------|-----------------5-|-----------5---5-|--------------|
|---------------------|-------------------|-----------------|-7~-----------|
|---------------------|-------------------|-----------------|--------------|
|---------------------|-------------------|-----------------|--------0-----|


  p i m a m i p i                                       2     2 4
|-------0---------|-------0---------|-------0---------|-----0-----0-----|
|-----0---0-------|-----0---0-------|-----0---0-------|---0-----4-------|
|---5-------5---5-|---4-------4---4-|---2-------2---2-|-----------------|
|-7-----------7---|-5-----------5---|-3-----------3---|-2-----3---------|
|-----------------|-----------------|-----------------|-----------------|
|-----------------|-----------------|-----------------|-------------0---|


                                     C1     C3................
|-5---0-0-0---0-|--------------0-3-|-1----0---------|--------------0---|
|-5-----3-----1-|---1----0---1-----|-1------3-3---5-|----5---5---------|
|-5-----4-----2-|----------2-------|-2------4-----4-|----4---4---------|
|-4-----6-----4-|------------------|-0------3-----5-|----5---5---------|
|-0-------------|----------0-------|----------------|-3----------------|
|---------------|------------------|--------3-------|----------0-------|


                                                 C2
|-5---0-0-0---0-|--------------0---|----------------|-----------------|
|-5-----3-----1-|---1----0---1---4-|-3----3-0-0-----|-----------------|
|-5-----4-----2-|----------2-------|-2------1-----2-|-----------------|
|-4-----6-----4-|------------------|-3------0-----2-|-----------------|
|-0-------------|----------0-------|-2------------3-|-----------------|
|---------------|------------------|--------0-----5-|-----------------|



|-4---4-4-4---4-|---4-----7---7---|-5----0-0-0---0-|-----0-----0-----0---|
|-6---5-5-5---5-|---5-----5---5---|-5------1-----1-|-----1-----1-----1---|
|-------------7-|---5-----5---5---|-5------1-----4-|-----4-----4-----4---|
|---------------|-----------------|----------------|---------------------|
|---------------|-----------------|-0--------------|-0-------------------|
|---------------|-----------------|--------0-------|-------------0-------|


                                                 C3....................
|-4---4-4-4---4-|---4-----7---7---|-5----0-0-0---3-|----3---------3---|
|-6---5-5-5---7-|---5-----5---5---|-5------1-----4-|----3---3-----3---|
|-------------7-|---5-----5---5---|-5------1-----4-|----4---4-----4---|
|---------------|-----------------|----------------|----3---3---------|
|---------------|-----------------|-0--------------|------------------|
|---------------|-----------------|--------0-------|-3--------3-------|


................................     C8...   C3.......     C2.........
|-3----3-3-3---3-|----3----6---6---|-10--8---3-------3-|----3----2h3p2--|
|-4----4-4-4---4-|----4----4---4---|--8------4---4---4-|----3-----------|
|------5-5-5---5-|----4----4---4---|--8------3-------3-|----2-----------|
|----------------|-----------------|--8----------------|----------------|
|-3--------------|-3---------------|---------3-------3-|----2-----------|
|--------3-------|---------3-------|-------------------|----------------|


                    C2...........         harmonics..................
|-0-----------0---|-----3---2h3p2----|-0-------------!12--|-------!12----||
|-----0-----0-----|-----4------------|----!12-----!12-----|--------------||
|-------0---------|-----2------------|-------!12----------|--------------||
|-----------------|------------------|--------------------|--------------||
|-----------------|-2----------------|--------------------|--------------||
|-0---------------|------------------|-0------------------|-!12----------||


                                       C5
||--5--------7---5-|-----------------|----------7---5-|-----------------|
||--5----5---------|----5------------|-5--------------|----5------------|
||.-5--------------|---------5-------|-5----5---------|--------5--------|
||.-4--------------|-------------4---|-5----5---------|------------5----|
||--0--------------|-0---------------|-0--------------|-0---------------|
||---------0-------|---------0-------|--------0-------|----------0------|


                                       C3....................
|-----------------|------------------|----------------|----------------|
|-----0---------0-|--------------0---|-5----5-----5---|-----5-----3----|
|-5-------5-------|--5-------5-------|-4----4-----5---|-----4-----1----|
|-3-----------3---|-------3----------|-5----5-----5---|-----5-----2----|
|-5---------------|------------------|-3--------------|-3--------------|
|-----------------|------------------|--------3-------|---------0------|


               C5..................                          4    2
|------3-------7---|------5-----------|----------------|-----7----0----|
|-1----1-------5---|------5-------5---|----------------|-----7----0----|
|-0----0-------5---|------5-------5---|-5----5-----5---|----------5----|
|-2----------------|--------------5---|-4----4-----4---|---------------|
|-0----------------|-0----------------|-0--------------|-0-------------|
|----------0-------|----------0-------|--------0-------|--------0------|


                                                      2  1  3 2  3 1
|-----0-------0---|-4---0---7---0---||-------------0---|-----------8----8-12p|
|-3-------6-------|-3-------6-------||-------1---1-----|---10---10---10------|
|-2-------5-------|-4-------7------.||-----2---2-------|-9----9--------------|
|-3-------6-------|-3-------6------.||---2-----------10|---------------------|
|-2-------5-------|-----------------||-----------------|---------------------|
|-----------------|-----------------||-----------------|---------------------|


                                                         p i m a m i p i
|-8----8----0-5-----|-8p5---5---------|----------------|-------0---------|
|---10---10-----5---|-----5---5---5---|----------------|-----0---0-------|
|-----------------5-|-----------5---5-|----------------|---5-------5---5-|
|-------------------|-----------------|-7~-------------|-7-----------7---|
|-------------------|-----------------|----------------|-----------------|
|-------------------|-----------------|--------0-------|-----------------|


                                                                4 1   4
|-------0---------|-------0---------|-----0-----0-----|-----------1-0---|
|-----0---0-------|-----0---0-------|---0-----4-------|---------4-----5-|
|---4-------4---4-|---2-------2---2-|-----------------|-----------------|
|-5-----------5---|-3-----------3---|-2-----3---------|-----------------|
|-----------------|-----------------|-----------------|-----------------|
|-----------------|-----------------|-------------0---|-----------------|


  1   4 1   4 1     2 1   4 1   1 2     3 4   3 2   1
|-2-0---3-0---4-0-|---4-0---4-0---5-|-0---7-0---8-0-4-|-5---0-0-0---0-|
|-----6-----7-----|-5---------------|-----------------|-5-----3-----1-|
|-----------------|-------7-----5---|---7-----9-------|-5-----4-----2-|
|-----------------|-----------------|-----------------|-4-----6-----4-|
|-----------------|-----------------|-----------------|-0-------------|
|-----------------|-----------------|-----------------|---------------|


                     C1     C3................
|--------------0-3-|-1----0---------|--------------0---|-5---0-0-0---0-|
|---1----0---1-----|-1------3-3---5-|----5---5---------|-5-----3-----1-|
|----------2-------|-2------4-----4-|----4---4---------|-5-----4-----2-|
|------------------|-0------3-----5-|----5---5---------|-4-----6-----4-|
|----------0-------|----------------|-3----------------|-0-------------|
|------------------|--------3-------|----------0-------|---------------|


                                  C2
|--------------0---|----------------|-----------------|-4---4-4-4---4-|
|---1----0---1---4-|-3----3-0-0-----|-----------------|-6---5-5-5---5-|
|----------2-------|-2------1-----2-|-----------------|-------------7-|
|------------------|-3------0-----2-|-----------------|---------------|
|----------0-------|-2------------3-|-----------------|---------------|
|------------------|--------0-----5-|-----------------|---------------|



|---4-----7---7---|-5------0-----0--|-----------------|-4---4-4-4---4-|
|---5-----5---5---|-5------1-----1--|-----------------|-6---5-5-5---7-|
|---5-----5---5---|-5------1-----4--|-----------------|-------------7-|
|-----------------|-----------------|-----------------|---------------|
|-----------------|-0------------0--|------3~---------|---------------|
|-----------------|--------0--------|-----------0-----|---------------|


                                 C3       4           C3
|---4-----7---7---|-5------0-----3-|----------------|-3----3-3-3---3-|
|---5-----5---5---|-5------1-----4-|----------------|-4----4-4-4---4-|
|---5-----5---5---|-5------1-----4-|----------------|------5-5-5---5-|
|-----------------|----------------|----------------|----------------|
|-----------------|-0--------------|------6~--------|-3--------------|
|-----------------|--------0-----3-|-----------3----|--------3-------|


                    C8...   C3.......      C2........
|----3----6---6---|-10--8---3-------3-|----3----2h3p2---|-0----0-----|
|----4----4---4---|--8------4---4---4-|----4------------|----------3-|
|----4----4---4---|--8------3-------3-|----2------------|------3-----|
|-----------------|--8----------------|-----------------|------------|
|-3---------------|---------3-------3-|----2------------|------3-----|
|---------3-------|-------------------|-----------------|-0----------|



|------------|--0----------|-------------|-5---0-0-0---0-|
|--1---3---0-|--0----------|-------------|-5-----3-----1-|
|--2---2-----|--1----------|-------------|-5-----4-----2-|
|--2---3-----|-------------|-------------|-4-----6-----4-|
|------2-----|--2----3-//////-7~---------|-0-------------|
|--1---------|--0----------|--------0----|---------------|


                     C1     C3................
|--------------0-3-|-1----0---------|--------------0---|-5---0-0-0---0-|
|---1----0---1-----|-1------3-3---5-|-------5------3---|-5-----3-----1-|
|----------2-------|-2------4-----4-|-----4--------4---|-5-----4-----2-|
|------------------|-0------3-----5-|---5--------------|-4-----6-----4-|
|----------0-------|----------------|-3----------------|-0-------------|
|------------------|--------3-------|----------0-------|---------------|


                                 C2       harmonics                 C2
|--------------0---|----------------|-----------------|----------------|
|---1----0---1---4-|-3----3-0-0-----|-----------------|-3----3-0-0-----|
|----------2-------|-2------1-----2-|-----------------|-2------1-----2-|
|------------------|-3------0-----2-|-----------------|-3------0-----2-|
|----------0-------|-2------------3-|---------!12-----|-2------------3-|
|------------------|--------0-----5-|--0--!12-------0-|--------0-----5-|


     harmonics               C7     C5
|-----------------|---10--10-10-10---5--|
|-----------------|---10------9------5--|
|-----------------|---10------7------5--|
|-----------------|----9----------------|
|---------!5------|-----------7------0--|
|--0--!5--------0-|---------------------|


                  2  1  3 2  3 1
|--------------0---|-----------8----8-12p|
|--------1---1-----|---10---10---10------|
|------2---2-------|-9----9--------------|
|----2-----------10|---------------------|
|------------------|---------------------|
|------------------|---------------------|



|-8----8----0-5-----|-8p5---5---------|----------------|--7--------------|
|---10---10-----5---|-----5---5---5---|----------------|--5--------------|
|-----------------5-|-----------5---5-|----------------|--5--------------|
|-------------------|-----------------|-7~-------------|--4--------------|
|-------------------|-----------------|------------0---|-----------------|
|-------------------|-----------------|----------------|-----------------|


fin.  :)    i sometimes swap that last chord with this one [0 0 10 9 7 7] 
for a bigger sound.


some notes:
there are many different recordings of this song floating around.  
this tab is a transcription of morel's own recording, from his 
'virtuoso' album.  
probably more widespread is jason vieaux recording on 'cavatina'
this has a few little nice changes, at the start of the piece he 
plays the first four bars twice and there are some measures which 
sound a bit different, i.e. like: 

 C3......
|----3---------0---|
|----5---5---------|
|----4---4---------|
|--------5---------|
|-3----------------|
|----------0-------|

and change bars 49 through 52 to this:

                    C2...........         harmonics............
|-0---------------|-----3---2h3p2----|-0-------------!12--|--------------||
|-----0-----------|-----4------------|----!12-----!12-----|--------------||
|-------0---------|-----2------------|-------!12----------|--------------||
|-----------2-----|------------------|--------------------|--------------||
|-------------2---|-----2------------|--------------------|--------------||
|-0---------------|-0----------------|-0------------------|-!12-----0----||


but most notable difference is in the 8th last measure.  instead of playing
the !5 harmonics, tap the body of the guitar 4 times (tap, tap-tap, tap)

comments and suggestions welcome
and thanks to the whoever guy who tabbed half of this song was...!
Добавлено: 29.06.2012
Другие материалы по этой песне:

Страница создана 15.03.2012
http://primanota.ru/jorge-morel/danza-brasilera-chords.htm
Привет, Гость.
Предлагаем пройти революционный курс по гитаре.
Подарок от PrimaNota.Ru, забирай!