PrimaNota.ru - самый крупный в мире бесплатный архив песенных текстов, аккордов, табулатур и нот


Jorge E Mateus - Amo Noite E Dia - аккорды и текст, таба, видео

Регистрация Запомнить меня
Войти через:  Facebook Google Twitter Vk Yandex Mail.ru

Jorge E Mateus - Amo Noite E Dia - аккорды и текст, таба, видео

Печатать
Просмотров: 322
Уроки эстрадного вокала в Санкт-Петербурге
Авторы: Jorge & Mateus

Amo Noite E Dia
Jorge E Mateus
Tom: E
                
Intro:

   C#m      A9       E        B
E|-0---0---0---0----0---0----0---0----------|
B|-5-----5-0-----0--0---0-0--0-----0--------|
G|-6-6-----2-2------1-----1--4-4---4--------|
D|-6-6-----2-2------2-2------4-4------------|
A|-4-4-----0-0------2-2------2-2------------|
E|------------------0-0---------------------|


Solo:

E|---0-----0-----0---0-----0----------------|
B|-5---5-5---5-5---5---5-5---5-5\2----------|
G|------------------------------------------|
D|------------------------------------------|
A|------------------------------------------|
E|------------------------------------------|



E|---0-----0---------0-----0-------0-----0--|
B|-2---2-2---2-2/5-5---5-5---5-5/9---9-9----|
G|------------------------------------------|
D|------------------------------------------|
A|------------------------------------------|
E|------------------------------------------|



E|---------0-----0--------------------------|
B|-9-9\7-7---7-7---7-7----------------------|
G|------------------------------------------|
D|------------------------------------------|
A|------------------------------------------|
E|------------------------------------------|


C#m                      A9
   Tem um pedaço do meu peito bem colado ao teu
C#m                        A9
   Alguma chave, algum segredo que me prende ao seu
C#m               A9                  E5
   Teu jeito perigoso de me conquistar
                  B
Teu jeito tão gostoso de me abraçar
C#m                       A9
   Tudo se perde se transforma se ninguém te ve
C#m                         A9
   Eu busco as vezes nos detalhes encontrar voce
C#m                A9                    E5
   O tempo ja não passa só anda pra trás
                   B                   A9 B
Me perco nessa estrada não aguento mais
Dedilhado da 1ª parte:

    C#m            A9
E|------------------------------------------|
B|---5-----5--------0-----0-----------------|
G|-----6-----6--------2-----2---------------|
D|------------------------------------------|   (3x)
A|-4-----4-----4--0-----0-----0-------------|
E|------------------------------------------|


    E5               B
E|-----------0------------------------------|
B|---0-----0---0-----0-----0----------------|
G|-----4---------------4-----4--------------|
D|-2-----2----------------------------------|
A|-----------------2-----2------2/4---------|
E|------------------------------------------|


(Repetir toda essa sequencia 2x, vamos tocar o final assim)


    A9      B
E|-0---0------------------------------------|
B|-0-----0-0-0-0-0-0-0-0-0------------------|
G|-2-2-----4-4-4-4-4-4-4-4------------------|
D|-2-2-----4-4-4-4-4-4-4-4------------------|
A|-0-0-----2-2-2-2-2-2-2-2------------------|
E|------------------------------------------|


Refrão:
  Iê iê
C#m                     A9             E
  Passo o dia, passo a noite tô apaixonado
                  B                    C#m
Coração no peito sofre sem voce do lado
                  A9                E
Dessa vez tudo é real nada de fantasia
                    B

Saiba que eu te amo,  amo noite e dia...
E|---0-----0---------0-----0-------0-----0--|
B|-2---2-2---2-2/5-5---5-5---5-5/9---9-9----|
G|------------------------------------------|
D|------------------------------------------|
A|------------------------------------------|
E|------------------------------------------|



E|---------0-----0--------------------------|
B|-9-9\7-7---7-7---7-7----------------------|
G|------------------------------------------|
D|------------------------------------------|
A|------------------------------------------|
E|------------------------------------------|


(Repete Tudo)

Solo:

E|-7/9-9-9-9-9/12-12-12-12-12-12\7-7-7-7-7-7-7-7-7-7-|
B|---------------------------------------------------|
G|---------------------------------------------------|
D|---------------------------------------------------|
A|---------------------------------------------------|
E|---------------------------------------------------|



E|-7/9-9-9-9-9/12-12-12-12-12-12\7-7-7-7-7-----------|
B|---------------------------------------------------|
G|---------------------------------------------------|
D|---------------------------------------------------|
A|---------------------------------------------------|
E|---------------------------------------------------|



E|-7-5-4-5-4---4-------------------------------------|
B|-----------7---7-5-7-5-4---------------------------|
G|-------------------------6-------------------------|
D|---------------------------------------------------|
A|---------------------------------------------------|
E|---------------------------------------------------|
Добавлено: 01.12.2013
Другие материалы по этой песне:
  • Аккорды и текст

Страница создана 18.07.2012
http://primanota.ru/jorge-e-mateus/amo-noite-e-dia-chords.htm
Привет, Гость.
Предлагаем пройти революционный курс по гитаре.
Подарок от PrimaNota.Ru, забирай!