PrimaNota.ru - самый крупный в мире бесплатный архив песенных текстов, аккордов, табулатур и нот


Jorge Drexler - Me Haces Bien - таба, видео

Регистрация Запомнить меня
Войти через:  Facebook Google Twitter Vk Yandex Mail.ru

Jorge Drexler - Me Haces Bien - таба, видео

Печатать
Просмотров: 116
Me haces bien
Jorge Drexler

----INTRO----

La      x  0  2  2  2  0
Bm7/A   x  0  4  2  3  2
Lamaj7  x  0  2  1  2  0
La7     x  0  2  1  2  0
Sim     2  2  4  4  3  2
Mi      0  2  2  1  0  0
Do#m    4  4  6  6  5  4
F#m     2  4  4  2  2  2
Si7     2  2  4  2  4  2

         La
E------------------------------------|
B------------------------------------|
G----2--4-4/6--6--6--6--4-—-2--------|
D--2---------------------------------|
A------------------------------------|
E------------------------------------|
          Lamaj7          La7
E---------------------------------------|
B---------------------------------------|
G----2--4-4/6--6--6--6--4--2--4—--------|
D--2------------------------------------|
A---------------------------------------|
E---------------------------------------|
        Sim      Mi       La
E---------------------------------------|
B---0h2------0h2------------------------|
G-------4--------4---2h4--2—-2----------|
D---------------------------------------|
A---------------------------------------|
E---------------------------------------|

La - Bm7/A

----VERSO---
       La
Para contar te canto
          Lamaj7   La7
quiero que sepas   cuanto
           Sim
me haces bien
           Mi
me haces bien
           La
me haces bien

----VERSO----

Te quiero de mil modos
te quiero y sobre todo
me haces bien
me haces bien
me haces bien

---PUENTE----
      Sim
Basta ver
       Do#m                    F#m
el reflejo de tus ojos en los míos
                  Si7
como se lleva el frío
          Mi
para entender

----VERSO----

Que el corazón no miente
que afortunadamente
me haces bien
me haces bien
me haces bien

-----SOLO----

E-------------------------------------------------------|
B-------------------------------------------------------|
G--1h2-2-2-2-2-2-1-1-1-1-2-1---------1------------------|
D----------------------------4-4-4-4---4-2-2-2-2-4-5-4--|
A-------------------------------------------------------|
E-------------------------------------------------------|

E---------------------|
B---------------------|
G-----------1---------|
D-0---0---------------|
A-------4-4-4-2-2--0--|
E---------------------|

---VERSO---

Para contar te canto
quiero que sepas   cuanto
me haces bien
me haces bien
me haces bien

---PUENTE----
        Sim
Basta ver
       Do#m                    F#m
el reflejo de tus ojos en los míos
                  Si7
como se lleva el frío
          Sim       Mi
Me haces bien, Me haces bien
           A      Si             Sim
Me haces bien,         Me haces bien
         Mi            A        Si
Me haces bien, Me haces bien
         Sim            Mi
Me haces bien, Me haces bien
            La
Me haces bien...

---Final Intro-----
Добавлено: 10.06.2012
Другие материалы по этой песне:
  • Аккорды и текст

Страница создана 10.06.2012
http://primanota.ru/jorge-drexler/me-haces-bien-chords.htm
Привет, Гость.
Предлагаем пройти революционный курс по гитаре.
Подарок от PrimaNota.Ru, забирай!