PrimaNota.ru - самый крупный в мире бесплатный архив песенных текстов, аккордов, табулатур и нот


Jorell Prospero - Thinking Out Loud - таба, видео

Регистрация Запомнить меня
Войти через:  Facebook Google Twitter Vk Yandex Mail.ru

Jorell Prospero - Thinking Out Loud - таба, видео

Печатать
Просмотров: 147
Title                    : Thinking Out Loud
Arrangement(ORIGINAL) BY : Ed Sheeran
Guitar arrangement  by   : aLjhon Radaza
Tabs by                  : aLjhon Radaza


NOTE: Song played in standard tuning.
      In my Video, I put capo on first fret but still in standard tuning
      this is for me to easily release strings and pull off coz my guitar action's too high.

(/) Slide Up  (\) Slide Down  (h) Hammer On  (p) Pull Off  (b) Bend (r) Release (v) Vibrato

(x) Tap   (O) Beat


Example:

    O - This symbol indicates beat using your palm

E|--2----|
B|--3----|
G|--2----|
D|-------|
A|-----x-|
E|--0--x-| x marks Indicates tap on string

Example 2:

E|----2--|
B|----0--|
G|-------|  This tabs shows Tap while hitting a string at same time
D|-------|       This technique nee a lot of patience and practice.
A|----x--|
E|----x--|

Verse I - When your legs dont...

E|-------------------------------------------------------------------|
B|---------0-------------------2--------------0-------------2--2h4---|
G|-0h2----2--------------------2---2h4--2----2-2------------2--------|
D|-0-----4---4-4-2-0-2-4-4-0---2-2----4-0---4---4-4-2-0-0---2-2------|
A|-----x------------------0--x------------x---------------x----------|
E|-----x-2-----------3-------x------------x-2-----------3-x----------|

E|-------------------------------------------------------------------|
B|---------0-------------------2--------------0-------------2--2h4---|
G|-0h2----2--------------------2---2h4--2----2-2------------2--------|
D|-0-----4---4-4-2-0-2-4-4-0---2-2----4-0---4---4-4-2-0-0---2-2------|
A|-----x------------------0--x------------x---------------x----------|
E|-----x-2-----------3-------x------------x-2-----------3-x----------|


Chorus I - Darling I will, loving you....

         O   O       O   O         O     O       O

E|---0-2---------0-2-2------3-2-0--2---------------------------------|
B|--3-----------3----3---2-3-----3-3-------2-----2-------------------|
G|-2-----2---2-2-----2---2---------2-----0-0-----2-------------------|
D|-------0---0-----------2---------0-----0-------2-------------------|
A|---------x-----------x-0-----------x--------x----------------------|
E|---------x-2-------3-x-------------x---2----x----------------------|


         O   O       O    O         O      O     O

E|---0-2---------0-2-2-------3-2-0--2------0h2-------0---------------|
B|--3-----------3----3----2-3-----3-3------3-----2-3-----------------|
G|-2-----2---2-2-----2----2---------2---0--------2-------------------|
D|-------0---0------------2---------0---0--------2-------------------|
A|---------x------------x-0-----------x--------x-0-------------------|
E|---------x-2-------3--x-------------x-2--3---x---------------------|


Refrain - People fall in love....


   O     O       O   O     O        O     O          O   O

E|-2-3-2-----------0-----2-2\0------2-3-2----------0-----------------|
B|-0-----3-3-3-3-3------3------3----0-----3-3-3-3-3--2---------------|
G|---------------------------------------------------2----------0----|
D|---------------------------------------------------2---------2-----|
A|-----x---------x----------------x-----x---------x--0-x-0-4-5-------|
E|-0---x-0-------x---2-----2------x-0---x-0-------x----x-------------|


   O      O           O   O         O     O

E|-2-3-2------------0-----2-2r0-----2-3-2----------------------------|
B|-0------3-3-3-3-3-----3-------3---3---3-3-3-3-3-3--2-2-2-2-2-------|
G|---------------------------------------------------2-2-2-2-2-------|
D|---------------------------------------------------2-2-2-2-2-------|
A|-----x----------x---------------x-----x---------x--0-0-0-0-0-------|
E|-0---x--0-------x---3---2-------x-3---x-3-------x------------------|


Chorus II - So honey now....


         O    O      O     O           O    O     O   O

E|---0-2-2-------------0---5-5-5-3-3\2-2-----------------------------|
B|--3----3----3--3---3-3---------------3----3--2--3---5-5-5-3-3\2----|
G|-2-----2----2--2---0-0---------------2----2--2--0------------------|
D|-------0----0--0---------------------0----0--0---------------------|
A|---------x-----x-------x-0-------------x-----x----x-0--------------|
E|---------x--2--x---3---x---------------x--2--x--3-x----------------|


   O   O    O     O            O   O     O

E|-2-5-0------0---5-5-5-3-3\2--2---2---0-2---------------------------|
B|-3-0-3-3--3-3----------------3---3--3--3---2-----0-----------------|
G|-2---2-2--0-0----------------2---2-2---0---3---3-------------------|
D|-0---------------------------O-------------2-2---------------------|
A|---x---x------x-0--------------x---------x-0-----------------------|
E|---x-2-x--3---x----------------x-2-----3-x-------------------------|


   O O O O O  O O

E|-2-0----------2----------------------------------------------------|
B|-----3------2-3----------------------------------------------------|
G|-------2-3----2----------------------------------------------------|
D|--------------0----------------------------------------------------|
A|-2-0--------0------------------------------------------------------|
E|-----3-2-3---------------------------------------------------------|


Verse II - And when my hair's all but gone and my memory fades....

E|-------------------------------------------------------------------|
B|---------0-------------------2--------------0-------------2--2h4---|
G|-0h2----2--------------------2---2h4--2----2-2------------2--------|
D|-0-----4---4-4-2-0-2-4-4-0---2-2----4-0---4---4-4-2-0-0---2-2------|
A|-----x------------------0--x------------x---------------x----------|
E|-----x-2-----------3-------x------------x-2-----------3-x----------|

E|--------------------------------------------------------------------|
B|---------0-------------------2--------------0-------------2---------|
G|-0h2----2--------------------2---2h4--2----2-2------------2---------|
D|-0-----4---4-4-2-0-2-4-4-0---2-2----4-0---4---4-4-2-0-0---2---------|
A|-----x------------------0--x------------x---------------x-----------|
E|-----x-2-----------3-------x------------x-2-----------3-x-----------|


Chorus III - Cause honey your soul ....

E|---0-2---------0-2-2------3-5-0--2---------------------------------|
B|--3-----------3----3---2-3-----3-3-------2-----2-------------------|
G|-2-----2---2-2-----2---2---------2-----0-0-----2-------------------|
D|-------0---0-----------2---------0-----0-------2-------------------|
A|---------x-----------x-0-----------x--------x----------------------|
E|---------x-2-------3-x-------------x---2----x----------------------|


         O   O       O    O         O      O     O

E|---0-2---------0-2-2-------3-2-0--2------0h2-------0---------------|
B|--3-----------3----3----2-3-----3-3------3-----2-3-----------------|
G|-2-----2---2-2-----2----2---------2---0--------2-------------------|
D|-------0---0------------2---------0---0--------2-------------------|
A|---------x------------x-0-----------x--------x-0-------------------|
E|---------x-2-------3--x-------------x-2--3---x---------------------|


Refrain - People fall in love....


   O     O       O   O     O        O     O          O   O

E|-2-3-2-----------0-----2-2\0------2-3-2----------0-----------------|
B|-0-----3-3-3-3-3------3------3----0-----3-3-3-3-3--2---------------|
G|---------------------------------------------------2----------0----|
D|---------------------------------------------------2---------2-----|
A|-----x---------x----------------x-----x---------x--0-x-0-4-5-------|
E|-0---x-0-------x---2-----2------x-0---x-0-------x----x-------------|


   O      O           O   O         O     O

E|-2-3-2------------0-----2-2r0-----2-3-2----------------------------|
B|-0------3-3-3-3-3-----3-------3---3---3-3-3-3-3-3--2-2-2-2-2-------|
G|---------------------------------------------------2-2-2-2-2-------|
D|---------------------------------------------------2-2-2-2-2-------|
A|-----x----------x---------------x-----x---------x--0-0-0-0-0-------|
E|-0---x--0-------x---3---2-------x-3---x-3-------x------------------|


Interlude

E|-------------2h2-0--------------------------2-5--------7-7---5-----|
B|---------0h3-3-------3---------2--------oh3-3-----3----------2-----|
G|-----0h2-----2-------2---4-4---3-----0h2----2-----2----------2-----|
D|-0h2---------0-------0---0-0---2-0h2--------------0----------2-----|
A|-------------------x---x-----x-0----------------x----x-----x-0-----|
E|-------------------x-2-x-3-3-x------------------x-2--x-3-3-x-------|


E|-12/4---10--12/4-------------0h0---2-5-----------------------2-----|
B|---------------------------2-----3-3-----3-3-3-3-2-2-2-0-0-0-3-----|
G|-------------------0-4-4---3-------2-----2-------------------2-----|
D|--------0----------0-0-0---2-------0-------------------------0-----|
A|-----------------x-------x-0-----------x-------------0-------------|
E|-----------------x-2-3-3-x-------------x-2-----2-------------------|

Chorus IV -Just simply do Chorus II tab


Ending

 O O O O O  O O         O O O O O

E|-2-0----------2----0--2-0-----3--5--2-0-------0--------------------|
B|-----3------2-3---3-------3---------3---3----3---------------------|
G|-------2-3----2--2----------3-------2------2-----------------------|
D|--------------0---------------------0------------------------------|
A|-2-0--------0---------2-0------------------------------------------|
E|-----3-2-3----------------3-2-3------------------------------------|

E|-2-0---------------------------------------------------------------|
B|------3------------------------------------------------------------|
G|---------2-0-------------------------------------------------------|
D|--------------2/4\2--0---------------------------------------------|
A|-2-0----------0----------------------------------------------------|
E|------3--2-0-------------------------------------------------------|

End Thanks

Dont forget to subscribe on my Youtube and facebook account.
Добавлено: 07.06.2015
Другие материалы по этой песне:
  • Аккорды и текст

Страница создана 07.06.2015
http://primanota.ru/jorell-prospero/thinking-out-loud-chords.htm
Привет, Гость.
Предлагаем пройти революционный курс по гитаре.
Подарок от PrimaNota.Ru, забирай!