PrimaNota.ru - самый крупный в мире бесплатный архив песенных текстов, аккордов, табулатур и нот


Jorell Prospero - Sayo - таба, видео

Регистрация Запомнить меня
Войти через:  Facebook Google Twitter Vk Yandex Mail.ru

Jorell Prospero - Sayo - таба, видео

Печатать
Просмотров: 123
Silent Sanctuary - Sa'yo (Arranged by Jorell Prospero)


"Kung gagamitin niyo yung tab na to, palagyan ng credits."
Mahirap kasi gumawa eh. Paki lagay kung sino yung nag arrange ng piece na to.
Thank you!


TUNING: DADGBe

Capo: 3rd fret

INTRO:

If you dont know how to do harmonics, please watch my tutorial.

http://www.youtube.com/watch?v=8_LXkmHZi8w

1pm-


Yung harmonics dito, e.g,

0 = 12fret

tas kapag 2 = 14fret

add add lang :)

e----------------------------------------------------|
B----------------------------------------------------|
G-----------2-2--------------------------------------|
D---0-0-2-2-----2--4---------------------------------|
A----------------------------------------------------|
D-0----------------5---------------------------------|

e----------------------------------------------------|
B---------------0------------------------------------|
G-----------2-2--------------------------------------|
D---0-0-2-2---------4--------------------------------|
A----------------------------------------------------|
D-0-----------------5--------------------------------|


VERSE:

e----------------------------------------------------|
B-------------------------------------0--------------|
G-------------2-2-----------------2-2----------------|
D---0-0-0H2-2-----2--4----0-0H2-2--------4-----------|
A---0----------------5----0--------------5-----------|
D-0------------------5--0----------------5-----------|

e----------------------------------------------------|
B----------------------------------------------------|
G------0H2-2-2-2-2-2S4-4-----------------------------|
D----0---------0-------4-4-4-------------------------|
A----0-----------------------------------------------|
D--0-----------0-------5-----5-----------------------|

e----------------------------------------------------|
B----------------------------------------------------|
G------------0H2S3P2---------------------------------|
D-0H2-0-0-0--0-------0-0---4-4-----------------------|
A-0-----------------------5--5-----------------------|
D-0----------0-----------5---5-----------------------|


Kung Tunay nga ang Pag ibig mo
Kaya mo bang isigaw

e-----------------------------0----2-----------------|
B----------3----3-----3----3-----3---3---------------|
G-1S2-2-2--2----2-----2-2----------------------------|
D-------------0--------------------------------------|
A----------------------------------------------------|
D----------2------2---2----2-----4-----4-------------|

e-----------------------0----------------------------|
B-------3---3----3---3-------------------------------|
G-2-2-2-2---2----2-2---------------------------------|
D---------0------------------0-t---------------------|
A------------------------------a---------------------|
D-------2-----2--2---2-----4---p--4------------------|

e-------0--5h7-5--t----------------------------------|
B-----3-----------a--7--7--7-----5--5----------------|
G-1s2------7------p--7--7--7-----6--6----------------|
D--------------------------------7--7----------------|
A-----------------------------0-----0----------------|
D----------5---------5-------------------------------|

(Harmonics ulit to)

e---------------------------5-------------------------|
B-1-0-0-----------------------------------------------|
G-------2-2-0-0---------0-2---------------------------|
D---------------4--2--4-------------------------------|
A-0-------0--------0----------------------------------|
D-----------------------------------------------------|


CHORUS:

e---------------------------------------------------------|
B-1S3-2---------------0------------------3--2-------------|
G-------2------0----0---0--0H2-----2-----2----2-----2-----|
D------------0---0--0------------0---0------------0--0----|
A---------------------------------------------------------|
D----------5--------5----------0-------0----0---0------0--|

e-------0------2--------------------------------------------|
B-----3--------3-3------3--2--------0------0----------------|
G-2S4--------------4----4----2----0---0--0---0-0H2S3P2------|
D----------------------------------------0------------------|
A----------2---------2-----0-----------------------------0--|
D-------------------------------5--------5-------------0----|

e----------------------------------------------------------|
B--0--2---2H3-3-2---------------0--------------------------|
G--3--3---2-------------1S2-2-----2------------------------|
D--2--2---4---------4--------------------------------------|
A---------2-------2----------------------------------------|
D--4--------------------------5-----5----------------------|

e-------------------------------------------------------|
B-------------------------------------------------------|
G--------0------------0---------------------------------|
D-1S2-4-----4-----2S4---4-0H2S3P2-0---------------------|
A-------------5-0---------------------------------------|
D--------2----2-----------------------------------------|

BACK TO INTRO:


e----------------------------------------------------|
B----------------------------------------------------|
G-----------2-2--------------------------------------|
D---0-0-2-2-----2--4---------------------------------|
A----------------------------------------------------|
D-0----------------5---------------------------------|

e----------------------------------------------------|
B---------------0------------------------------------|
G-----------2-2--------------------------------------|
D---0-0-2-2---------4--------------------------------|
A----------------------------------------------------|
D-0-----------------5--------------------------------|


VERSE 2:

REPEAT LANG, NILAGYAN LANG NG TAP :)


e-----------------------------0----------------------|
B----------3----3-----3----3-------------------------|
G-1S2-2-2--2----2-----2-2----------------------------|
D-------------0--------------------------------------|
A----------------------------------------------------|
D----------2------2---2----2-------------------------|

e-2-3--t--3h5--5-------------------------------------|
B-2-2--a--2----2-------------------------------------|
G-2----p--2------------------------------------------|
D----------------------------------------------------|
A----------------------------------------------------|
D-4-------4------------------------------------------|

e--8--7-7-5-5---------------5-5+--------------------|
B--5-----------8-8-7--5-7-8-------------------------|
G--5------------------------------------------------|
D---------------------------------------------------|
A--0--------0---------0-----------------------------|
D---------------------------------------------------|

CHORUS:

e---------------------------------------------------------|
B-1S3-2---------------0------------------3--2-------------|
G-------2------0----0---0--0H2-----2-----2----2-----2-----|
D------------0---0--0------------0---0------------0--0----|
A---------------------------------------------------------|
D----------5--------5----------0-------0----0---0------0--|

e-------0------2--------------------------------------------|
B-----3--------3-3------3--2--------0------0----------------|
G-2S4--------------4----4----2----0---0--0---0-0H2S3P2------|
D----------------------------------------0------------------|
A----------2---------2-----0-----------------------------0--|
D-------------------------------5--------5-------------0----|

e----------------------------------------------------------|
B--0--2---2H3-3-2---------------0--------------------------|
G--3--3---2-------------1S2-2-----2------------------------|
D--2--2---4---------4--------------------------------------|
A---------2-------2----------------------------------------|
D--4--------------------------5-----5----------------------|

e-------------------------------------------------------|
B-------------------------------------------------------|
G--------0------------0---------------------------------|
D-1S2-4-----4-----2S4---4-0H2S3P2-0---------------------|
A-------------5-0---------------------------------------|
D--------2----2-----------------------------------------|

*ADDITIONAL* KUNG GUSTO NIYO GAWIN YUNG PART NA TO, PWEDE RIN.
PERO OKAY RIN YUNG SA TAAS :)

2:37-2:39

e-------0--2------------------------------------------|
B----3-----3-3----------------------------------------|
G--------------4--------------------------------------|
D-4---------------------------------------------------|
A----0--2--------2------------------------------------|
D-5---------------------------------------------------|

Kailangan ba kitang iwasan
sa twing lalapit may paalam
ibang anyo sa karamihan
iba rin pag tayo, iba rin pag tayo lang

e-------------------------------------------------------|
B-----------------------2-------------------------------|
G-----------------------2----2--2-----------------------|
D--------0--0--2--4--0---------------4------------------|
A-2-2-2--2--2--2--2--2----------------------------------|
D-----------------------4--4-4--4--4-4------------------|


e-------------------------------------------------------|
B--------------------2-----2H3-2------------------------|
G--------------------2-----2---2----2-------------------|
D-------0--0--4--0--------------------------------------|
A-2-2-2-2--2--2--2--------------------------------------|
D--------------------4--4--4---4-4--4-------------------|

e-------------------------------------------------------|
B-----------------------2-------------------------------|
G-----------------------2---2-2---2---------------------|
D--------0--0--2--4-0-----------------------------------|
A-------------------------------------------------------|
D-2-2-2--2--2--2--2-2---4-4-4-4-4-4---------------------|

e-------------------------------------------------------|
B-------------------------------------------------------|
G-0h2--3----3--3--0-----5-----3--3---2--0--2------------|
D-------------------------------------------------------|
A-------------------------------------------------------|
D------2-2--2--2--2--0--5--5--5--5-5-5--5--5------------|

STRUM THIS PART:

e-------------------------------------------------------|
B-----------------4-4-4-4-4-----------------------------|
G-----2-2-2-2-2---4-4-4-4-4-----------------------------|
D--2--2-2-2-2-2---4-4-4-4-4-----------------------------|
A-0---0-0-0-0-0---2-2-2-2-2-----------------------------|
D-------------------------------------------------------|

THEN MOVE THE CAPO TO 5TH FRET..

SAME CHORUS..


OUTRO:

e----------------------------------------------------|
B----------------------------------------------------|
G-----------2-2--------------------------------------|
D---0-0-2-2-----2--4---------------------------------|
A------------------4---------------------------------|
D-0----------------5---------------------------------|

e-------0-0--5---5-5S7--2------2---------------------------|
B-3--3--3-3--3---3------3------3---------------------------|
G-2--2----------------------0--0---------------------------|
D-------------------------0----0----12+--------------------|
A-----------------------------------12+--------------------|
D-0-------0-------------5-----------12+--------------------|

That's all. Godbless everyone!

1:00pm- 3:30pm, Friday, October 17, 2014
Добавлено: 07.06.2015
Другие материалы по этой песне:
  • Аккорды и текст

Страница создана 07.06.2015
http://primanota.ru/jorell-prospero/sayo-chords.htm
Привет, Гость.
Предлагаем пройти революционный курс по гитаре.
Подарок от PrimaNota.Ru, забирай!