PrimaNota.ru - самый крупный в мире бесплатный архив песенных текстов, аккордов, табулатур и нот


Jorell Prospero - Rude - таба, видео

Регистрация Запомнить меня
Войти через:  Facebook Google Twitter Vk Yandex Mail.ru

Jorell Prospero - Rude - таба, видео

Печатать
Просмотров: 122
MAGIC! - RUDE (ARRANGEMENT BY JORELL PROSPERO)

"IF YOU WILL BE USING THIS TAB, PLEASE PUT CREDITS"


TUNING: EADGBe (Standard)

Capo: 1st fret

T MEANS "TAP"

e-----------------------------------------------------|
B-----------------------------------------------------|
G-----------------------------------------------------|
D-----------------------------------------------------|
A-----------------------------------------------------|
E-12s0------------------------------------------------|

Saturday morning..

e-----------------------------------------------------|
B---1------0--1-0----1--0-1-0-------------------------|
G---2------2-------2-2--2------2--2----2--------------|
D---3------3-------------------2--2----2--------------|
A------------------------------3-----3----------------|
E-1--------1-------3----3-----------------------------|

e-----------------------------------------------------|
B-----------------------------------------------------|
G----------0--2---------------------------------------|
D--2--2--3--------------------------------------------|
A--0-------0------------------------------------------|
E-------------3---------------------------------------|

e-----------------------------------------------------|
B---1------0--1-0----1--0-1-0-------------------------|
G---2------2-------2-2--2------2--2----2--------------|
D---3------3-------------------2--2----2--------------|
A------------------------------3-----3----------------|
E-1--------1-------3----3-----------------------------|

e-----------------------------------------------------|
B-----------------------------------------------------|
G----------0--2---------------------------------------|
D--2--2--3--------------------------------------------|
A--0-------0------------------------------------------|
E-------------3---------------------------------------|

e-----0--1-----0-------0--1----0----------------------|
B-----0-----------3----3----------1---------1---------|
G-----2-----------0----0----------0-------0-----------|
D-----------------------------------------------------|
A---------------------------------3-----3--------3----|
E-1-T-1-----T-----3-T--3-----T-------T--------T-------|

e-----------0--1--------------------------------------|
B--1--1--3--------------------------------------------|
G--2--------------------------------------------------|
D-----------------------------------------------------|
A--0--------0-----------------------------------------|
E--------------3--------------------------------------|

e-----0--1-----0-------0--3----0----------------------|
B-----0-----------3----3----------1---------1---------|
G-----2-----------0----0----------0-------0-----------|
D-----------------------------------------------------|
A---------------------------------3-----3--------3----|
E-1-T-1-----T-----3-T--3-----T-------T--------T-------|

e------------------------------------------------------|
B-1----------------------------------------------------|
G-2----------------------------------------------------|
D-2----------------------------------------------------|
A-0----------------------------------------------------|
E------------------------------------------------------|

Can I have your daughter for the rest of my life?
Say yes, say yes 'cause I need to know

e---------------------------------------------------------|
B--1--1-1-----1--0--0--0----------------------------------|
G--2----------2-----------2-2-0h2--0--0--0h2---0h2-0--2---|
D--------------------------------------------2----------2-|
A-------------------------------------3------2-----0------|
E--1-------1-----------3----------------------------------|

e-------------------------------------------------------|
B----0--------------------------------------------------|
G---2---------------------------------------------------|
D--2----------------------------------------------------|
A-------------------------------------------------------|
E-------------------------------------------------------|

e--------------------------------------------------------|
B--1--1-1-----1--0--0--0---------------------------------|
G--2----------2-----------2-2-0h2--0--0--0h2---0h2-0--2--|
D--------------------------------------------2-----------|
A-------------------------------------3------2-----0-----|
E--1-------1-----------3---------------------------------|

e-----------------------------------------------------|
B-1--3------------------------------------------------|
G-----------------------------------------------------|
D-----------------------------------------------------|
A-----------------------------------------------------|
E-----------------------------------------------------|

CHORUS:

e---------3-3-3-3---------0--------------3-3---0------|
B---------1---------1-----1--3--1--------1------------|
G---------2---------0-----0--------------0------------|
D-----------------------------------------------------|
A-----------------------------------3----3------------|
E-1-T--1----------T-3--T--3-----------T------T--------|

e------0-----------------------------------------------|
B-1----1--3--1-----------------------------------------|
G-2----2-----------------------------------------------|
D-2----------------------------------------------------|
A-0----0-----------------------------------------------|
E---T--------------------------------------------------|

e---------3-3-3-3---------0----------------------------|
B---------1---------1-----1--3--1-----------1-1-1------|
G---------2---------0-----0----------------0-----------|
D------------------------------------------------------|
A-----------------------------------3----3-------------|
E-1-T--1----------T-3--T--3-----------T----------------|

e-----------------------------------------------------|
B-0H1-1-0H1-1-----------------------------------------|
G-----------------------------------------------------|
D-----------------------------------------------------|
A-0---------------------------------------------------|
E-----------------------------------------------------|

Marry that girl
Marry her anyway

e---0----------------------0----------------------------|
B-3---1-----0H1-1-0H1-1--3---1----1-1--0H1-1-0H1-1------|
G-------0----------------------0------------------------|
D-------------------------------------------------------|
A------------------------3-------------0----------------|
E-1---------3-------------------------------------------|

e---0--------------------------3-3-3-3-------------------|
B-3---1-----0H1-1-0H1-1--1-----1-------1-1---------------|
G-------0------------------------------------X-----------|
D--------------------------------------------X-----------|
A------------------------3---3---------------X-----------|
E-1---------3--------------T-----------------X--T--------|

e-0--0------------------------------------3-3-3-3---3-----|
B-1--1---------1--0--0----------0---1-----1---------------|
G-2--2-------2----0--0--------0-----0---------------------|
D---------------------------------------------------------|
A-----------------------------------3-----3---------------|
E-1----T--1-------3-----T--3-----------T----------T-------|

e---------------------------------------------------------|
B-1-1-----3S5-3--1----------------------------------------|
G-2-2-----------------------------------------------------|
D---------------------------------------------------------|
A-0----0--------------------------------------------------|
E---------------------------------------------------------|

e---0----------------------0----------------------------|
B-3---1-----0H1-1-0H1-1--3---1----1-1--0H1-1-0H1-1------|
G-------0----------------------0------------------------|
D-------------------------------------------------------|
A------------------------3-------------0----------------|
E-1---------3-------------------------------------------|

e---0--------------------------3-3-3-3-------------------|
B-3---1-----0H1-1-0H1-1--1-----1-------1-1---------------|
G-------0------------------------------------X-----------|
D--------------------------------------------X-----------|
A------------------------3---3---------------X-----------|
E-1---------3--------------T-----------------X--T--------|

e-0--0------------------------------------3-3-3-3---3-----|
B-1--1---------1--0--0----------0---1-----1---------------|
G-2--2-------2----0--0--------0-----0---------------------|
D---------------------------------------------------------|
A-----------------------------------3-----3---------------|
E-1----T--1-------3-----T--3-----------T----------T-------|

e--------------+12--------------------------------------|
B-1-1----------+12--------------------------------------|
G-2-2----------+12--------------------------------------|
D-------------------------------------------------------|
A-0-----------------------------------------------------|
E-------TTTT--------------------------------------------|


Repeat again except this part.

Or we will run away
To another galaxy, you know
You know she's in love with me
She will go anywhere I go

e-----------0H1-0--1----1p0----------0-0-0-0-------------|
B----------------------------3-------1-------------------|
G------------------------------0-----0-------------------|
D--------3-----------------------------------------------|
A--------------------------------3---3-------------------|
E-1-T--1------T----3-T--3----------T---------------------|

e-0------1----0---------------------------------------|
B----3-------------1----------------------------------|
G-----------------------------------------------------|
D-----------------------------------------------------|
A-0---------------------------------------------------|
E----------T----T-------------------------------------|

e-------0--1----0--1-----0------------0-0-0-0---------|
B-------0-------------------3---------1---------------|
G-------2-----------------------------0---------------|
D-----------------------------------------------------|
A---------------------------------3---3---------------|
E-1-T---1-----T----3--T--3-----3----T-----------------|

e-0------1----0---------------------------------------|
B----3-------------1----------------------------------|
G-----------------------------------------------------|
D-----------------------------------------------------|
A-0---------------------------------------------------|
E----------T----T-------------------------------------|

BACK TO, Can I have your daughter for the rest of my life?
Say yes, say yes 'cause I need to know

THEN CHORUS..

2:41-2:42

e--------------------------------------------------|
B--------------------------------------------------|
G--------------------------------------------------|
D--------------------------------------------------|
A-0-3-2-0------------------------------------------|
E---------3----------------------------------------|

e-0--0------------------------------------3-3-3-3---3-----|
B-1--1---------1--0--0----------0---1-----1---------------|
G-2--2-------2----0--0--------0-----0---------------------|
D---------------------------------------------------------|
A-----------------------------------3-----3---------------|
E-1----T--1-------3-----T--3-----------T----------T-------|

e---------------------------------------------------------|
B-1-1-----3S5-3--1----------------------------------------|
G-2-2-----------------------------------------------------|
D---------------------------------------------------------|
A-0----0--------------------------------------------------|
E---------------------------------------------------------|

e---0----------------------0----------------------------|
B-3---1-----0H1-1-0H1-1--3---1----1-1--0H1-1-0H1-1------|
G-------0----------------------0------------------------|
D-------------------------------------------------------|
A------------------------3-------------0----------------|
E-1---------3-------------------------------------------|

e---0--------------------------3-3-3-3-------------------|
B-3---1-----0H1-1-0H1-1--1-----1-------1-1---------------|
G-------0------------------------------------X-----------|
D--------------------------------------------X-----------|
A------------------------3---3---------------X-----------|
E-1---------3--------------T-----------------X--T--------|

e-0--0------------------------------------3-3-3-3---3-----|
B-1--1---------1--0--0----------0---1-----1---------------|
G-2--2-------2----0--0--------0-----0---------------------|
D---------------------------------------------------------|
A-----------------------------------3-----3---------------|
E-1----T--1-------3-----T--3-----------T----------T-------|

e-------------------------------------------------------|
B-1-1---------------------------------------------------|
G-2-2---------------------------------------------------|
D-------------------------------------------------------|
A-0-----------------------------------------------------|
E-------------------------------------------------------|


SOLO PART:

e----------0------0-----------------------------------|
B---0-1----1------1--3-1-3----------------------------|
G-2-----2--2------2----------0H2----2------0----------|
D--------------------------------------0-2------------|
A-----------------------------------------------------|
E----------1-T-1-------------3---T--3-----------------|


                        T.H
e------------------------13--------------------------|
B-------0-1-0---0--1-----13--------------------------|
G---0-2-------2----2-----13--------------------------|
D-2----------------2---------------------------------|
A-3----------------0---------------------------------|
E---------------------T------------------------------|

e------3-3-3-3---3----------0------------------------|
B-1----1------------1-------1--3-1---------8-10-8-10-|
G-2----2------------0-------0------------------------|
D----------------------------------------------------|
A----------------------------------------------------|
E-1-T--1-------T----3--T--3---------8-T-8------------|

e-8-----8--------------------------------------------|
B-5-----5--------------------------------------------|
G-5-----5--------------------------------------------|
D----------------------------------------------------|
A-0-----0--------------------------------------------|
E----T-----------------------------------------------|

Repeat..Can I have your daughter for the rest of my life?
Say yes, say yes 'cause I need to know

except this part.

'cause the answer's still 'No"

e----1-0---------------------------------------------|
B---------1-3----------------------------------------|
G-0--------------------------------------------------|
D----------------------------------------------------|
A----0-----------------------------------------------|
E----------------------------------------------------|

Repeat chorus..

then..


Rude..


e--------------------------------------------------|
B-----1--------------------------------------------|
G-2s4----------------------------------------------|
D--------------------------------------------------|
A--------------------------------------------------|
E--------------------------------------------------|


Thats it! If you have any questions, please do send me a private message :)


Godbless you all!

Sept 18 2014. Thursday. 10:01pm- 2:12am
Добавлено: 07.06.2015
Другие материалы по этой песне:
  • Аккорды и текст

Страница создана 07.06.2015
http://primanota.ru/jorell-prospero/rude-chords.htm
Привет, Гость.
Предлагаем пройти революционный курс по гитаре.
Подарок от PrimaNota.Ru, забирай!