PrimaNota.ru - самый крупный в мире бесплатный архив песенных текстов, аккордов, табулатур и нот


Jorell Prospero - Pinoy Big Brother Sad Instrument - таба, видео

Регистрация Запомнить меня
Войти через:  Facebook Google Twitter Vk Yandex Mail.ru

Jorell Prospero - Pinoy Big Brother Sad Instrument - таба, видео

Печатать
Просмотров: 104
(Pinoy Big Brother) Sad Instrumental (ARRANGED BY JORELL PROSPERO)

TUNING: STANDARD


e--11---------11---------12--------12----------11---------11---------|
B------12---------12---------13--------13----------12---------12-----|
G--11------11------------12-----12-------------11------11------------|
D--------------------------------------------------------------------|
A--------------------------------------------------------------------|
E--------------------------------------------------------------------|

e-------------------------|
B---------12---------12---|
G-----11---------11-------|
D--9----------9-----------|  2x
A-------------------------|
E-------------------------|


e--3-2-----------------------0-------------------------|
B------3s5--------5------3-----3---0------0------------|
G-------------------5-------------------0--------------|
D--------------5-----------0----------0----------------|
A------------3-----------2---------2-------------------|
E------------------------------------------------------|

e--3-2-----------------------0-------------------------|
B------3s5--------5------3-----3---0------0------------|
G-------------------5-------------------0--------------|
D--------------5-----------0----------0----------------|
A------------3-----------2---------2-------------------|
E------------------------------------------------------|

e--3-2------------------------0-----------------------------------------|
B------3s5--------5-----7---7---7----8--7--5--3--1-----1-1-----1--------|
G-------------------5--------------------------------0-------0----------|
D--------------5----------7------------------------2-------2------------|
A------------3----------5------------7--5--3--2--0-------0--------------|
E-----------------------------------------------------------------------|


e------------3--------------|
B--0------0--3--------------|
G-------0----0--------------|
D-----0------0--------------|
A------------2--------------|
E--3---------3--------------|


e-------0-----------0----------------0-----------0-----------------------|
B--14-----14---12-----12---10---14-----14---12-----12---10---------------|
G-----0-----------0----------------0-----------0-------------------------|
D------------------------------------------------------------------------|
A--12----------10----------9----12----------10----------9----------------|
E------------------------------------------------------------------------|

e-------0-----------0-----------0-----------------0--------0------------3--|
B--14-----14---12-----12---10-----10--8---7---5-----5--3-----3--0-----0-3--|
G-----0-----------0-----------0---------0---0---0--------0----------0---0--|
D-----------------------------------------------------------------0-----0--|
A--12----------10----------9----------7---5---3--------2----------------2--|
E---------------------------------------------------------------3-------3--|

e----3-2------------------------0-----------------------------------------|
B--------3s5--------5-----7---7---7----8--7--5--3--1-----1-1-----1--------|
G---------------------5--------------------------------0-------0----------|
D----------------5----------7------------------------2-------2------------|
A--------------3----------5------------7--5--3--2--0-------0--------------|
E--3----------------------------------------------------------------------|

e------------3-------|
B--0------0--3-------|
G-------0----0-------|
D-----0------0-------|
A------------2-------|
E--3---------3-------|

e-------0-----------0----------------0-----------0-------------------------|
B--14-----14---12-----12---10---14-----14---12-----12---10-----------------|
G-----0-----------0----------------0-----------0---------------------------|
D--------------------------------------------------------------------------|
A--12----------10----------9----12----------10----------9------------------|
E--------------------------------------------------------------------------|

e-------0-----------0-----------0-----------------0--------0------------3--|
B--14-----14---12-----12---10-----10--8---7---5-----5--3-----3--0-----0-3--|
G-----0-----------0-----------0---------0---0---0--------0----------0---0--|
D-----------------------------------------------------------------0-----0--|
A--12----------10----------9----------7---5---3--------2----------------2--|
E---------------------------------------------------------------3-------3--|

e----3-2------------------------0------------------------------------------|
B--------3s5--------5-----7---7---7----8--7--5--3--1-----1-1-----1---------|
G---------------------5--------------------------------0-------0-----------|
D----------------5----------7------------------------2-------2-------------|
A--------------3----------5------------7--5--3--2--0-------0---------------|
E--3-----------------------------------------------------------------------|

e------------3--------|
B--0------0--3--------|
G-------0----0--------|
D-----0------0--------|
A------------2--------|
E--3---------3--------|
Добавлено: 07.06.2015
Другие материалы по этой песне:
  • Аккорды и текст

Страница создана 07.06.2015
http://primanota.ru/jorell-prospero/pinoy-big-brother-sad-instrument-chords.htm
Привет, Гость.
Предлагаем пройти революционный курс по гитаре.
Подарок от PrimaNota.Ru, забирай!