PrimaNota.ru - самый крупный в мире бесплатный архив песенных текстов, аккордов, табулатур и нот


Jorell Prospero - Meteor Garden - таба, видео

Регистрация Запомнить меня
Войти через:  Facebook Google Twitter Vk Yandex Mail.ru

Jorell Prospero - Meteor Garden - таба, видео

Печатать
Просмотров: 62
Penny Tai - Ni Yao De Ai (Arranged by Jorell Prospero)

NOTE: IF YOU WILL USE MY TAB AND ARRANGEMENT, DONT FORGET TO PUT "CREDITS"


Tuning: DADGBe

Capo: 3rd fret

Verse..

e------------------0----------------------------------------------|
B-------------2----------2--------------3-------------------------|
G-2----2-2-----------3--------3---------4-4----4-2----------------|
D-4--4-----4----4-----------4---4----4------4------3--------------|
A-0--------------------------------2-----------2-----4------------|
D-0-----------4----------4----------------------------------------|

e-----------------------------------------------------------------|
B-------------------------0--0-2h3--2-----------------------------|
G-----2-------------------------------3------------4--------------|
D---2---2----0--0h2---4-4---------------2-2h4----4---4------------|
A-0---------0----------------------------------2------------------|
D---------------------5-------------4-----------------------------|

e----------------------------------------------------------------|
B-----------0-0h2-----------2h3-2--------------------------------|
G-----1---1-------------2h4-2---2--------------------------------|
D-2-2--2--2-------2-----2----------------0-----------------------|
A---------------------0------------0-0h2-------------------------|
D-2-------2------------------------------------------------------|

e-----------------------0-----------------------------------------|
B------------------2---------2-----------------3-------3--4--3----|
G-----------2-2-----------3--------------------4-4---4------------|
D----0----4-----4----4---------4--3h4p3------4-----4--------------|
A---0--0--------------------------------4--2---------2----2-------|
D-0-------0--------4---------4------------------------------------|

e----2------------2p0----------------------0----------------------|
B----2---2------------3---------------3-------2------3--------0---|
G----2-2------0--------------4------------------3----------2------|
D--------------------------5---5-4--6-------------4------4--------|
A-0----------------------------------------------------2----------|
D-----------0-----4------5-------5-------5----4-------------------|


e------------------0-----------------------------------------------|
B-------0--------3----------2h3------------------------------------|
G---2-1-1--2-3-4--------2h4-2--------------------------------------|
D-------2---------------2------------------------------------------|
A-------2-------------0--------------------------------------------|
D-2-----2------2---------------------------------------------------|


Chorus:

e-----2----0----0----2--0---2------------2-0---0-------0-----------|
B------------3-----3-3----3-----2------------3-----3---------------|
G-2-2----------------2----------3------2-----------4----------4----|
D------------------------------------3---------------5------5------|
A----------------------------------4-------------------------------|
D-------0-------0----0--------4----------4-------5--------5--------|

e--------1-0-0--------1-0-0-----2--5-2---------2--0----------------|
B-----3------------0---------3--3--------------3----3--------------|
G---4------------0--------------2-----------2--2-------------------|
D-5------------0--------------------------0------------------------|
A------------------------------------------------------------------|
D--------2------------2---2-----0-------0------0----0--------------|

e-2----------------2--0---0---------0------------------------------|
B------2-------2--------3------3------------------3----------------|
G------3-----3-----------------4-----------4----4------------------|
D----------4---------------------5-------5----5--------------------|
A------------------------------------------------------------------|
D---4--------------4----4----5---------5---------------------------|

e-1--0-0--------1---------------------------------------------------|
B------------0-----3s6-6-5-5--3-------------------------------------|
G----------0-----------0---0----3-2---------------------------------|
D--------0----------------------------------------------------------|
A-------------------------------------------------------------------|
D-2-------------2------5---5----------------------------------------|


STRUM..

e-------------------------------------------------------------------|
B-3------3--2-------------------------------------------------------|
G-2-----2-----3-----------------------------------------------------|
D-0----0--------2-2h4---4--2-0--2h4-0--2-0-0-0h2--------------------|
A-0-----------------------------------------------------------------|
D-0---------4---------4---------5------5---5------------------------|

e--------------------------------------------------------------------|
B--------------------------------------------------------------------|
G-------------------t------0------2-t-------0------------------------|
D-0--2--4--2-0--4-4-a----4------2---a-----2--------------------------|
A-------------------p---------0-----p---0----------------------------|
D-------5-------2-----2--------------------------0-------------------|


Repeat verse..

except for these parts, dagdagan niyo lang nito.

1:47-1:48

e----------------------------------------------------------------|
B----------------------------------------------------------------|
G----------------------------------------------------------------|
D----------------------------------------------------------------|
A-0-1-2----------------------------------------------------------|
D----------------------------------------------------------------|

1:52-1:53

e----------------------------------------------------------------|
B----------------------------------------------------------------|
G----------------------------------------------------------------|
D------0---------------------------------------------------------|
A--4-5-----------------------------------------------------------|
D----------------------------------------------------------------|

2:03-2:05

e-----2-----------------------------------------------------------|
B---0-------------------------------------------------------------|
G-1-------2-------------------------------------------------------|
D-----------------------------------------------------------------|
A-------0---------------------------------------------------------|
D-2---------------------------------------------------------------|

Repeat chorus..

then, 2:37- 2:39

e---------5-3-2h3-------------------------------------------------|
B-6-5-5-3---------------------------------------------------------|
G-0---0-----------------------------------------------------------|
D-----------------------------------------------------------------|
A-----------------------------------------------------------------|
D-5---5-----------------------------------------------------------|

adlib:

strum..down, down, up, up, down, down

e-0----0--x--2------0---0---0------------------0---------------------|
B-3----2--3----5-3--1---3---3--------3------------2------3-----------|
G-2----3--4---------2---2---4-----------t-----------3-t--4-----------|
D-0----4--4---------2---0---5---4--6----a----4--------a--4-----------|
A-0----x--2---------x---0---x-----------p-------------p--2-----------|
D-0----4--x---------x---0---5---5----------5------4------------------|

e-2-0-0--------------------------------------------------------------|
B-0-----3-3---0-0--3s6--5-5--3-3-------------------------------------|
G--------------------------------------------------------------------|
D--------------------------------------------------------------------|
A--------------------------------------------------------------------|
D-2---2-----2---2----5----5------------------------------------------|

Repeat chorus..

then add this:

3:17-3:19

e-1--0--0-----------------------------------------------------------|
B----------3--------------------------------------------------------|
G-------------------------------------------------------------------|
D----------0--------------------------------------------------------|
A-0--2--4-----------------------------------------------------------|
D-------------------------------------------------------------------|


Outro:

e---------0-----------------0-------------------0-----------0----------|
B-------------3----2---------------------------------------------------|
G-----2-----2---2-------3-------3h4p3-------4------------1------1h2p1--|
D---0---0-------------4---4---4-------4---5---5---5----2--2---2------2-|
A----------------------------------------------------------------------|
D-0----------------4--------------------5------------2-----------------|

e---------0-----------------0-----------------0----------------0---------|
B-------------3----2-----------------------------------------------------|
G-----2-----2---2-------3-------3---------4-------4--------1-------1-----|
D---0---0-------------4---4---4---4-----5---5---5---5----2---2---2---2---|
A------------------------------------------------------------------------|
D-0----------------4------------------5----------------2-----------------|


e-x---------------------------------------------------------------|
B-3---------------------------------------------------------------|
G-2---------------------------------------------------------------|
D-4---------------------------------------------------------------|
A-x---------------------------------------------------------------|
D-0---------------------------------------------------------------|

Done! If you have any questions, send me a private message on my fb account.

Hope you'll appreciate this!


April 20, 2014. 9:35pm-12:40am
Добавлено: 09.09.2015
Другие материалы по этой песне:
  • Аккорды и текст

Страница создана 09.09.2015
http://primanota.ru/jorell-prospero/meteor-garden-chords.htm
Привет, Гость.
Предлагаем пройти революционный курс по гитаре.
Подарок от PrimaNota.Ru, забирай!