PrimaNota.ru - самый крупный в мире бесплатный архив песенных текстов, аккордов, табулатур и нот


Jorell Prospero - Mahal Na Mahal - таба, видео

Регистрация Запомнить меня
Войти через:  Facebook Google Twitter Vk Yandex Mail.ru

Jorell Prospero - Mahal Na Mahal - таба, видео

Печатать
Просмотров: 194
Уроки эстрадного вокала в Санкт-Петербурге
Sam Concepcion - Mahal Na Mahal (Arranged By Jorell Prospero)


TUNING: EADGBe

Capo: 1st Fret


"Kung gagamitin niyo po yung arrangement ko, at gagamitin for cover,

wag niyong kalimutan ilagay sa description box kung sino yung nag arrange ng piece na to"

Thank you :)

LEGEND:

x-strum
+-harmonics
p-pull off
h-hammer

NOTE: Para makuha niyo ng maayos, tugtugin niyo muna ng mabagal. :)


INTRO:


e-3------------15+----1---------------13+--------1p0------|
B-3-------16+---------1---------14+-----------------0-----|
G-4---16+-------------2----14+---------------2-------2----|
D-5-------------------3-----------------------------------|
A-5-------------------3-----------------------------------|
E-3-------------------1-----------------------------------|

e---------7-(18+)--5(16+)---------------------------------|
B-------0----------------------5--------------------------|
G-----0----------------------5----------------------------|
D--------------------------5------------------------------|
A------------------3--------------------------------------|
E--0------------------------------------------------------|


Verse:


e----------------------------------------------------------|
B----------------------------------------------------------|
G-0h2--2----2------2-2p0-0--2-----2------2-2p0-0-2---------|
D-----------0------------0------0-0------------0-----------|
A--------2--2------------x----2---2---2--2-----x-----------|
E------3----x---3--3--------------x------------------------|

e------------------------------------------------------------|
B------0--------0-x----------------------1-----1-------------|
G---2--0------2---2--0h2--0---0----0-----2-----2-------------|
D------x--------------------2-2---2--0---2--2--2-------------|
A-0--------0--0-----------3---3--3--2----0-----0-------------|
E-----------------------------x----------------x-------------|

e-----------------------------------------------------------------|
B---1-1p0-0--1-------------1--3--0-------------------3------------|
G---2-----2----------0-----0-----0--2-----2-t-----2--2-2-----2-t--|
D---2-----2-------2--2-----2-----2------4---a---4----x-----4---a--|
A-0-0-----x-----3----3--3--------x----5-----p-5----------5-----p--|
E--------------------x--------------------------------------------|

e--2--2--2-------------------------------------------------|
B--1--1--1-------------------------------------------------|
G--2--2--2-------------------------------------------------|
D--0--0--0-------------------------------------------------|
A--x--x--x-------------------------------------------------|
E----------------------------------------------------------|

Repeat Verse except for this part: 0:51-0:53

e---------------------------------------------------------|
B---------------3---------0-------------------------------|
G------2----t---2-------------0---------------------------|
D----4------a---4---------6s7-----------------------------|
A--5--------p---5-----------------------------------------|
E---------------------------------------------------------|

Sa Lahat 'di maari, 'di maaring iwan

e---------------------------------------------------------|
B-------------0-3--3------0--3--0---0---------------------|
G----2--t---2-0-0--0----0-0--0--0-2----2-0----------------|
D---2---a--2-------x--2---------x------0-0----------------|
A--0----p-0---0-----------2------------x-x----------------|
E---------------------------------------------------------|

Repeat this part then,

e----------------------3-3-----3-----------7s0--------------|
B-----------------1----4-4-----4------8-10------------------|
G------0-t-----0--0-0--5-5--t--5----7-----------------------|
D----2---a---2----x---------a-------------------------------|
A--3-----p-3-----------3----p--3----------------------------|
E-----------------------------------------------------------|


CHORUS:


e-----------------------------------------------------------|
B----0-0-0--0-0-0--0--1-1h3------0-0-0--0-0-0-0--1-1h3------|
G--------0---------0----0------------0--------0----0--------|
D--------X--------------X------------x-------------x--------|
A------------------------------2--------------2-------------|
E-3----------------3----------------------------------------|


e-----------------------------------------------------------|
B----3--3-3-3-3-3---1-0-------------------------------------|
G----0--0-------------x--2------0--t------0-----------------|
D-------x---------------------2----a----2-------------------|
A--0------------0-----------3------p--3---------------------|
E-----------------------------------------------------------|


e----------------------------------------------------------|
B----------------------------------------------------------|
G-----2-t-------2------------------------------------------|
D---4---a-----4--------------------------------------------|
A-5-----p---5----------------------------------------------|
E----------------------------------------------------------|


repeat.. then,

'Yan lang ang maaari natin, sadyang matatanggap


e----------------------------------------------------------|
B----3--3--3-3-3--1---------------------0------------------|
G----0--0------------0--2---2---2-----2---2-0------0-------|
D-------x------------2--------0-0---------0-------2--t-----|
A-3------------3-----3----2-----2--2--2---x----------a-----|
E--------------------x----------x---------------0----p-----|

e----------------------------------------------------------|
B------0--0--0--0----0------0-----------------------0-0----|
G---------------2-0----2--t-2-2-2-----0--0-0---0--2---0----|
D---------------2---------a-2---0--------2---2--------x----|
A---------------x----0----p-0---x---0----x-----0-----------|
E--0-------------------------------------------------------|

e-3------------------------------------------------------|
B-2------------------------------------------------------|
G-3--0-0-0---0--2-2h4------------------------------------|
D-0--------4---------------------------------------------|
A-x------------------------------------------------------|
E--------------------------------------------------------|

Back to intro except for harmonics.


Repeat verse and add this part. 2:07- 2:08

e--------------------------------------------------------|
B--1--0--------------------------------------------------|
G-----------0------0-------------------------------------|
D--------2--2----2-----0---------------------------------|
A-----3-----x--3-----2-----------------------------------|
E--------------------------------------------------------|


2:36 - 2:41

e-------0-----------------------2--2----2---5h7---5h7------|
B-3--3---------1-1---------1----3--3----3------------------|
G-2--2---------2-2-------2-2-2--2--2--t-2------------------|
D----0---------2-2-----2---2----0--0--a-0---0-----0--------|
A----x------0----x---0-----x----------p--------------------|
E----------------------------------------------------------|


repeat chorus.

then,

Mahal na Mahal kita
Mahal na Mahal kita
Mahal na Mahal kita
Higit pa sa iniisip mo

e---------------------------------------------------------|
B-----0-0-0-0-0---1-3-----3----0-0-0-0-0--1--3----3-------|
G----------------------0-----------------------0----------|
D---------------------------------------------------------|
A----------------------------2----------------------------|
E--3----------3-------------------------------------------|

e------------------------0---------0----------------------|
B-----0-0-0-0-0--1-3-----3-3-3--1--3--3--1-1h3------------|
G---------------------2--2---------2----------------------|
D------------------------0---------0----------------------|
A---0---------0-------------------------------------------|
E---------------------------------------------------------|


repeat.. then change key, move the capo to 2nd fret.


That's it!

If you have any questions regarding this tab, please dont hesitate to send me a PM on facebook.

Goodluck!

- Jorell Prospero


3:30pm-7:31pm  5/30/14
Добавлено: 07.06.2015
Другие материалы по этой песне:
  • Аккорды и текст

Страница создана 07.06.2015
http://primanota.ru/jorell-prospero/mahal-na-mahal-chords.htm
Привет, Гость.
Предлагаем пройти революционный курс по гитаре.
Подарок от PrimaNota.Ru, забирай!