PrimaNota.ru - самый крупный в мире бесплатный архив песенных текстов, аккордов, табулатур и нот


Jorell Prospero - Magkabilang Mundo - таба, видео

Регистрация Запомнить меня
Войти через:  Facebook Google Twitter Vk Yandex Mail.ru

Jorell Prospero - Magkabilang Mundo - таба, видео

Печатать
Просмотров: 44
JIREH LIM - MAGKABILANG MUNDO BY JORELL PROSPERO

Tabbed by: Jorell Prospero
Contributed by: JthLcs


Intro, Verse : G, Bm, C9, D
Chorus and Adlib : G, D/F#, Em9, D
Balang araw ay makakapiling ka part: Am, C9 or Cm
(Depende na lang sa inyo kung anung mas maganda sa pandinig niyo)

Tuning: eBGDAE


CAPO:1ST FRET



INTRO AND VERSE!
e-----------------------------------------------------------------|
B--3--------0-S----3-S-----0-S-------3-S-------0-S----------------|
G-0--2-2----0-T---0--T-2---0-T-----0---T--2----0-T----------------|
D-------------R------R-------R---------R---------R----------------|
A-------------U------U---2---U---2-----U-----3---U---3------------|
E--------3----M--3---M-------M---------M---------M----------------|

e---------------------S-------------------------------------------|
B-----S--1--0-S------(3)----0-S----3-S----0-S----3-S----0-S-------|
G-0-2-T-------T-2-2-0-R-2---0-T---0--T-2--0-T---0--T-2--0-T-------|
D-----R-------R-------U-------R------R------R------R------R-------|
A-----U---3---U---3---M-------U------U-2----U-2----U---3--U-3-----|
E-----M-------M----------3----M-3----M------M------M------M-------|

e----------------------3-------------------------------------------|
B-----S-1--0-S---------4-------------------------------------------|
G-0-2-T------T-2-0-0---5-------------------------------------------|
D-----R------R---------5-------------------------------------------|
A-----U--3---U-3-------3-------------------------------------------|
E-----M------M-----------------------------------------------------|

Isama niyo lang yung 34553 sa intro


CHORUS!

e-----------------------------------------------------------------|
B---------1---S---------S-1---S-----------S-3---0-------3--0------|
G-0-0-2-0-----T---0-0-2-T-----T---0-0---2-T--------2-0------2--0--|
D-------------R-0-------R-----R-0---------R-----------------------|
A-------------U---------U-----U-----------U-------------3---------|
E-----------3-M-----3---M---2-M-----2-----M--0-----0--------------|

e------------------------------------------------------------------|
B--------1--S---------S-1-----S----------S-3---0-----3-0-----------|
G--0-2-0----T---0-0-2-T-------T---0-0--2-T------2-0-----2-0---0----|
D-----------R-0-------R-------R-0--------R------------------2------|
A--3--------U---------U-------U----------U----------3--------------|
E---------3-M-----3---M----2--M-----2----M-0-----0-----------------|

e----------------------------------|
B-1-0---------1-0------------------|
G-2---2--0-0--0---0--0--2--2---0---|
D-2-----------2--------------------|
A-0-----------3--------------------|
E----------------------------3-----|


G, Bm, C9, D


BACK TO VERSE, 
THEN CHORUS...


SOLO PART!
e|-3-1-0------------------------0---3-2-0---------3s5------5-----5s7--5-3----|
B|-3-----2---0--2------3------3--3--------3----0-----------------------------|
G|-------------------2------2----------------------------0-----0-------------|
D|--------------------------------------------------------------------0------|
A|-----------------------------------------------------3-----3---------------|
E|-3-------3---------2----2---------0--------0-------------------------------|

e|---------------------------------------------------------------------------|
B|-----3---------------------------------------------------------------------|
G|-0-2---0-2-0---0-------0---------------------------------------------------|
D|-------------4---4-2-4-----------------------------------------------------|
A|---------------------------------------------------------------------------|
E|-3-------------3-------3---------------------------------------------------|

e|---------------------------------------------------------------------------|
B|-----3---------------------------------------------------------------------|
G|-0-2---0-2-0----0---------0------------------------------------------------|
D|-------------4------4-2-4--------------------------------------------------|
A|---------------------------------------------------------------------------|
E|-2--------------2---------2------------------------------------------------|

THEN Em, c9, D..

BACK TO CHORUS, THEN ENDING N
Rate niyo po :)

Yung original tab ni kuya Jorell Prospero, walang strumming. Yung strumming parang kinapa ko lang. 90% accurate :) (twitter: @jthlcs)
Добавлено: 09.09.2015
Вам также может быть интересно:
Другие материалы по этой песне:
  • Аккорды и текст

Страница создана 09.09.2015
http://primanota.ru/jorell-prospero/magkabilang-mundo-chords.htm
Привет, Гость.
Предлагаем пройти революционный курс по гитаре.
Подарок от PrimaNota.Ru, забирай!