PrimaNota.ru - самый крупный в мире бесплатный архив песенных текстов, аккордов, табулатур и нот


Jorell Prospero - Let It Go Let Her Go - таба, видео

Регистрация Запомнить меня
Войти через:  Facebook Google Twitter Vk Yandex Mail.ru

Jorell Prospero - Let It Go Let Her Go - таба, видео

Печатать
Просмотров: 158
Уроки эстрадного вокала в Санкт-Петербурге
Let it go / Let her go MASHUP by Idina Menzel and Passenger (Arranged by Jorell Prospero)

Special Thanks to SAM TSUI.

"Please put credits if you'll gonna use my arrangement."


TUNING: EADGBe

Capo: 2nd Fret

e-----------------0-------------0-------------------------------------|
B---0--1------1-----3------3-3----3--1--1--1---1---1------------------|
G-2---------0---0--------0-------------------2---2-------2------------|
D------------------------------------------------------3--------------|
A---------3-----------------------------0------0----------------------|
E----------------------3-----3-----------------------1----------------|

e-----------------0-------------0--------------0----------------------|
B---0--1------1-----3------3-3----3--1--1--1------3--1---------1-1----|
G-2---------0---0--------0-------------------2---------------2--2-----|
D----------------------------------------------------------3----------|
A---------3-----------------------------0------0----------------------|
E----------------------3-----3--------------------------1-------------|


Here I stand..

e------0------------0--------3------0--------------0------------------|
B-3--------3------3---3-----------------1---1----3---3--1-3-----------|
G----0----------0-------0---------0-------2---2-------------2-2-2-0---|
D---2---------0-----------0-----2-------------------------------------|
A-3--------------------------0----------------------------------------|
E----------3--------3-------------------1--------1--------1-----------|

e------------------------------0h1-1-1-1-1-1-1-1-1p0-0---------------|
B-1-----1---1--0------0---0------------------------------------------|
G-----0---0---------0---0--------------------------------------------|
D-----------------0--------------------------------------------------|
A---3----------------------------------------------------------------|
E--------------3-----------------------------------------------------|

e--------------------------------------------------------------------|
B-0h1---0-1----1--0h1----0-1---1---0h1---0-1-------------------------|
G-2-----0-0--2----0----------0-----0-----0---0-2---2-----------------|
D-----2---------------0----------------0---------2-------------------|
A-0--------------------------------------------0---------------------|
E-----------------1----------------3-----------------3---------------|

e-----------------------0---------------------------------------------|
B-0h1---0-1----1--0h1-----0-1---1---0h1---0-1-------------------------|
G-2-----0-0--2----0-----------0-----0-----0---0-2---2-----------------|
D-----2---------------0-----------------0---------2-------------------|
A-0---------------------------------------------0---------------------|
E-----------------1-----------------3-----------------3---------------|

Staring at the bottom of your glass,
Hoping one day you'll make a dream last
But dreams come slow, and they go so fast

e-0-0-0-0-0---------------0-0-0-----------------------0----------------|
B-1-------1--3-1----1---------------3-3-3--1-0-----------3--1----------|
G----------------2------2-----------0-----------2---2------------------|
D---------------------3---------------------------2--------------------|
A-0-------0-------------------------------------0----------------------|
E-------------------1-----1------3------3-------------3----------------|

e-------0-0-0----------------------------------------------------------|
B----------------1-----1-----0-----------------------------------------|
G----2-----------0---0-------0-----------------------------------------|
D---3----------------------0-------------------------------------------|
A--------------3-------------------------------------------------------|
E-1-----1----------------3---------------------------------------------|


Don't let them in, don't let them see
Be the good guy you always have to be
Conseal don't feel, don't let them know
Well now they know

e-----------------------------------------------------------------------|
B---------------------------------------------0--1---0-0----------------|
G----------0--0----------2--2-----2----2----2---------------------------|
D------0-0---------0-0--------------3-----3-----------------------------|
A----2------------------------------------------------------------------|
E--3-------------3-----3--------1------1----1------1--------------------|

e-----------------------------------------------------------------------|
B--------------------------------------------------0-1------------------|
G----------0--0----------2--2--------2-----2-----2----------------------|
D------0-0---------0-0-------------3-----3-------3----------------------|
A----2------------------------------------------------------------------|
E--3-------------3-----3--------1----1-------1---1----------------------|


REPEAT..


THEN,

You only need the light when it's burning low
You only miss the sun when it starts to snow
You only know you love her when you let her go, oh

e--------0---------------------------0-------------0----------------------|
B--3-3-3---3-1--1-1---1---1------1-3---3--1--3-3-----3--------------------|
G-------------------2---2------0-----------------0------------------------|
D---------------3-----3---------------------------------------------------|
A----------------------------3-----3--------------------------------------|
E--------------------------------------------3-----3----------------------|

e-----------0-------------------------------------------------0-----------|
B-1----1--3----3--1--3-1----------1-----1---1----0-----0---0--0-----------|
G----0-------------------2-2-2-0------0---0---0------0---0----0-----------|
D-0------------------3-----------------------------0----------0-----------|
A-----------------------------------3-------------------------2-----------|
E---------3--------------------------------------3------------3-----------|

e--------0---------------------------0-------------0----------------------|
B--3-3-3---3-1--1-1---1---1------1-3---3--1--3-3-----3--------------------|
G-------------------2---2------0-----------------0------------------------|
D---------------3-----3---------------------------------------------------|
A----------------------------3-----3--------------------------------------|
E--------------------------------------------3-----3----------------------|

e-----------0-------------------------------------------------0---3--|
B-1----1--3----3--1--3-1----------1-----1---1----0-----0---0--0---3--|
G----0-------------------2-2-2-0------0---0---0------0---0----0---0--|gt; Strum the G chord.
D-0------------------3-----------------------------0----------0---0--|
A-----------------------------------3-------------------------2---2--|
E---------3--------------------------------------3------------3---3--|

Back to chorus,

Then outro.


e--------------------------------------------------------------------|
B-0h1---0-1----1--0h1----0-1---1---0h1---0-1-------------------------|
G-2-----0-0--2----0----------0-----0-----0---0-2---2-----------------|
D-----2---------------0----------------0---------2-------------------|
A-0--------------------------------------------0---------------------|
E-----------------1----------------3-----------------3---------------|

e-----------------------0-------------------------------------3--------|
B-0h1---0-1----1--0h1-----0-1---1---0h1---0-1---------------0----------|
G-2-----0-0--2----0-----------0-----0-----0---0-2---2-----2------------|
D-----2---------------0-----------------0---------2-----2--------------|
A-0---------------------------------------------0----------------------|
E-----------------1-----------------3-----------------3----------------|

e----0-------------------------0-------------0--------------------------|
B-3----3--1----------1----1-----------1----3---3------1-----------------|
G------------0h2----2---2-----------0---0---------0h2-----2-------------|
D------------3------------------------------------------0---------------|
A---------------------------------3--------3----------------------------|
E-------------------------------------------------3---------------------|

e-0------------0----------------------3p1--------------------------------|
B----3----3--3---3-1------1---1----------------1h3----0----0-------------|
G-------0-------------0h2---2-----2---------0---------0------0-----------|
D---------------------3---------3---------2--------------------0---------|
A----0--------------------------------3----------------------------------|
E-3----------3--------------------------------------3----3-------3-------|


e-0------------------------------------------------------------------|
B-1------------------------------------------------------------------|
G-0------------------------------------------------------------------|
D-2------------------------------------------------------------------|
A-3------------------------------------------------------------------|
E--------------------------------------------------------------------|
Добавлено: 07.06.2015
Другие материалы по этой песне:
  • Аккорды и текст

Страница создана 07.06.2015
http://primanota.ru/jorell-prospero/let-it-go-let-her-go-chords.htm
Привет, Гость.
Предлагаем пройти революционный курс по гитаре.
Подарок от PrimaNota.Ru, забирай!