PrimaNota.ru - самый крупный в мире бесплатный архив песенных текстов, аккордов, табулатур и нот


Jorell Prospero - Kahit Maputi Na Ang Buhok Ko - таба, видео

Регистрация Запомнить меня
Войти через:  Facebook Google Twitter Vk Yandex Mail.ru

Jorell Prospero - Kahit Maputi Na Ang Buhok Ko - таба, видео

Печатать
Просмотров: 92
Noel Cabangon - Kahit maputi na ang buhok ko (Arranged by Jorell Prospero)

TUNING: DADGBe
CAPO: 2nd Fret


INTRO:

e-2-------3---------5------7--5--3-----5---3--------------------------------------|
B-3--3----3--3------5-------------------------------------------------------------|
G-2----2--------2----------------------------0------------------------------------|
D---------------------------------------------------------------------------------|
A---------------------------------------------------------------------------------|
D-0--------------------0------------0---------------------------------------------|

e-2-----3---------5---------------------------------------------------------------|
B-3-3---3---3-----5---------------------------------------------------------------|
G-2---2-------2-------------------------------------------------------------------|
D---------------------------------------------------------------------------------|
A---------------------------------------------------------------------------------|
D-0-------------------------------------------------------------------------------|


VERSE:

e------------0--0-----2--2-------0--2-2---2----3--0------0--------------------------|
B-------3-3-----------3--3--3-------------------------3-----------------------------|
G-2-2-2--------------------2-2------------------------------------------------------|
D--------------------------------------------0--------------------------------------|
A-----------------------------------------------------------------------------------|
D------------------0-------------4----4---5---------5-------------------------------|

e-----0----0----------------------------------------------------------------------|
B-----2------2---2----------------------------------------------------------------|
G--------------2------------------------------------------------------------------|
D---------------------------------------------------------------------------------|
A--0----0-------------------------------------------------------------------------|
D---------------------------------------------------------------------------------|

e--0--2-2--2----0--2-2---2-----3--0-------0----------------------------------------|
B--3--3-3--3----------------------------3------------------------------------------|
G----------------------------------------------------------------------------------|
D---------------------------0------------------------------------------------------|
A----------------------------------------------------------------------------------|
D--0----0-------4----4---5------------5--------------------------------------------|


ANG NAKALIPAS PART...


e----0-----0--2-2s5-5--5--5----6---2-----2------------------------------------------|
B----2-----2--------------------------5----5---3-3--3-------------------------------|
G----------------------------------------------4-4--4-------------------------------|
D-----------------------------------------------------------------------------------|
A--0----0--0---------------------------------2---2----------------------------------|
D-------------------4--4----4--4---4------------------------------------------------|


e--2-0---2--0-----------------------------------2----2-----2----2---2----2----------|
B--3-3---3--3----3-----0--0-0-0--3--2---2-0-----3----3------3---1---1----1----------|
G----------------2-------0--------------------2----------2---2--2--------2----------|
D-----------------------------------------------------------------------------------|
A-------------------------------------0-----0---------------------------------------|
D--0-----------0-------5--5------------------------0---0--------0-----0--0----------|


e--2--3-3s5--5--7--7--7--7-7-7-7s9---7-7-7----------------------------------------|
B------------0------------------------------10-9--10----10------------------------|
G-------------------------------------------9--9---9--9----9----------------------|
D---------------------------------------------------------------------------------|
A------------------------0---------0--------9--------9----------------------------|
D------------5-----5--------------------------------------------------------------|


e-----2----5--5--3--2-7----------------2------------------------------------------|
B-----3---------------8-----0--2-------3------------------------------------------|
G---4---4-------------9-----0--2--2s4--2------------------------------------------|
D---------------------9--4-----2--------------------------------------------------|
A-2--------2----------7--------0--------------------------------------------------|
D------------------------4--5----------0------------------------------------------|

BACK TO INTRO.. THEN SAME VERSE..


SOLO PART:


e------2----0-----0----2-----2--0---0-------0-----0---------------------------------|
B------3----3---3------0-----0----3------3------3------2----------------------------|
G----2----2---------------0---------------------------2-2---------------------------|
D-----------------------------------------------------------------------------------|
A---------------------------------------------------0-------------------------------|
D--0--------0--------4-------4---------5-------5------------------------------------|

e--------0------5--0----5--0------5--0-----------------2--0----0--------------------|
B--2--3---------3-------3----------------3--0--3-------------3-----2----------------|
G--2----------2-------2--------2---------------------0--0----------2----------------|
D------------------------------------------------------------------2----------------|
A--0-------------------------------------------------------------0---0--------------|
D-----------0--------0-------4---------4-----------5------5-------------------------|


BACK TO ANG NAKALIPAS PART... THEN, END :)

GOODLUCK AND GODBLESS :))
Добавлено: 28.07.2015
Другие материалы по этой песне:
  • Аккорды и текст

Страница создана 28.07.2015
http://primanota.ru/jorell-prospero/kahit-maputi-na-ang-buhok-ko-chords.htm
Привет, Гость.
Предлагаем пройти революционный курс по гитаре.
Подарок от PrimaNota.Ru, забирай!