PrimaNota.ru - самый крупный в мире бесплатный архив песенных текстов, аккордов, табулатур и нот


Jorell Prospero - Ikaw - таба, видео

Регистрация Запомнить меня
Войти через:  Facebook Google Twitter Vk Yandex Mail.ru

Jorell Prospero - Ikaw - таба, видео

Печатать
Просмотров: 130
YENG CONSTANTINO - IKAW (ARRANGED BY JOREL PROSPERO)

TUNING: STANDARD

CAPO: 5TH ---> 8TH FRET

"KUNG GAGAMITIN NIYO YUNG TAB NA TO, PALAGAY KUNG SINO NAGAARRANGE."
MAHIRAP KASING GUMAWA NG TAB. THANKS!


INTRO:

e-0---0----0----0----0------0----0---0------------------|
B-1---1----1----1----0--0---0----0---0------------------|
G---0---0----0----0-------0---0----0---0----------------|
D-------------------------------------------------------|
A-3--------3--------------------------------------------|
E--------------------0-----------0----------------------|

e-0----0----0-----0-------------------------------------|
B-1----1----1-----1------1-----1------------------------|
G-2-2----2--2--2-----2---2---2--------------------------|
D--------------------------3----------------------------|
A-0---------0-------------------------------------------|
E------------------------1--------1---------------------|


VERSE: (PAG MAY X, IT MEANS STRUM.)

e-------------------------------------------------------|
B-------------------------1H3S4P3--1--------------------|
G--------0-----0----------------------------------------|
D--2-2H3----2--2--2H3--2--------------2H3---------------|
A--------3-----3-------3-----------3--------------------|
E--------------X----------------------------------------|


e-------------------------------------------------------|
B-----X---------1-0---------------0---------------------|
G-----0---------------------------2---------------------|
D-----2--0-0--2--------0--2----2--2---0-0---------------|
A---2-2----------------------0----0---------------------|
E-0---0-------0------0------------X---------------------|

e-------------------------------------------------------|
B----------0--------------------------------------------|
G------------2---------------------0--------------------|
D-0-0--1S2-----------0----2---3-------------------------|
A------0-------0--3-------------------------------------|
E--------------------1--1---1----1----------------------|


e-----------------------------------------------------|
B-----------------------------------------------------|
G----------0------------------------------------------|
D-0--2-----2------------------------------------------|
A----3--3--3---2-2------------------------------------|
E----------X------------------------------------------|

e-------------------------------------------------------|
B-------------------------1H3S4P3--1--------------------|
G-------------------------------------------------------|
D----------------------2--------------2H3---------------|
A----------------------3-----------3--------------------|
E-------------------------------------------------------|


e-------------------------------------------------------|
B-----X---------1-0---------------0---------------------|
G-----0---------------------------2---------------------|
D-----2--0-0--2--------0--2----2--2---0-0---------------|
A---2-2----------------------0----0---------------------|
E-0---0-------0------0------------X---------------------|

e-------------------------------------------------------|
B----------0--------------------------------------------|
G------------2---------------------0--------------------|
D-0-0--1S2-----------0----2---3-------------------------|
A------0-------0--3-------------------------------------|
E--------------------1--1---1----1----------------------|


e-------------0----------------------------------------|
B--------------0---------------------------------------|
G----------0----0--------------------------------------|
D-3------3-------3-------------------------------------|
A------3----------3------------------------------------|
E----1-------------1-----------------------------------|

CHORUS:

e----0----0--0-0--1--1-0----------------0--------------|
B----1----1--------------3---1--3-------0--------------|
G-0----0--0-----------------------------0----0---------|
D---------X--------------------------2--2--------------|
A----3------------3--------3------------X--------------|
E----------------------------------0-------0-----------|

e-0-0------------------0-----------X-------------------|
B------3--1---0--1-----1----1------1----1-----1--------|
G----------------------2--2--------0--0-------2--------|
D--------------------2-X--------0--0--------3-3--------|
A------------------0---------------2----------X--------|
E-0---------0-----------------3----3------1------------|

e---0----------------3--0------------------------------|
B---------3-----1--------------------------------------|
G-2---------------2------------------------------------|
D-------3----------------------------------------------|
A------------------------------------------------------|
E-----1------1-----------------------------------------|

e------------------------------------------------------|
B------------------------------------------------------|
G---0--------------------------------------------------|
D------------------------------------------------------|
A-3----------------------------------------------------|
E------------------------------------------------------|

e---------0--0-0--1--1-0----------------0--------------|
B---------1--------------3---1--3-------0--------------|
G---------0-----------------------------0----0---------|
D---------X--------------------------2--2--------------|
A-----------------3--------3------------X--------------|
E----------------------------------0-------0-----------|


e-0-0------------------0-----------X-------------------|
B------3--1---0--1-----1----1------1----1-----1--------|
G----------------------2--2--------0--0-------2--------|
D--------------------2-X--------0--0--------3-3--------|
A------------------0---------------2----------X--------|
E-0---------0-----------------3----3------1------------|

e---0--------------------------------------------------|
B---------3-----1-----0--------------------------------|
G-2----------------------------------------------------|
D-------3----------------------------------------------|
A------------------------------------------------------|
E-----1------1-----1-----------------------------------|

HARMONICS PART. KUNG HINDI NIYO PA ALAM KUNG PANO GAWIN YUN,
PLEASE WATCH THIS VIDEO:

http://www.youtube.com/watch?v=8_LXkmHZi8w

e------------------------------------------------------|
B-1-------0--------------------------------------------|
G-----0--------0----2---2-------2----------------------|
D---0---0----0---0----2---2---2---2--------------------|
A-3-------3---------3-------3--------------------------|
E------------------------------------------------------|

e------------------------------------------------------|
B-1+------0+-------------------------------------------|
G-----0--------0----2+--2-------2----------------------|
D---0---0----0---0----2---2---2---2--------------------|
A-3-------3---------3-------3--------------------------|
E------------------------------------------------------|

REPEAT VERSE..

EXCEPT THIS PART, 2:09-2:13

e------0-----0-----0------------------------------------|
B------0-----0-----0------------------------------------|
G------2-----2-----2------------------------------------|
D---3--3-----3-----3------------------------------------|
A------X-----X-----X------------------------------------|
E-1-------1-----1---------------------------------------|

BACK TO CHORUS..


At hindi pa 'ko umibig
Ng ganto at nasa isip
Makasama ka habang buhay

e------0---------------------0--0h1--------------3-3p0-0--|
B-1-3--------3---3-----3--1--3---------1--1----1---0------|
G------------0---0-----0-----0---------2--2----2---x------|
D------------2---2-----2-----x---------2--2----2----------|
A----------------x-----x------------0-----x--0-x----------|
E---------0---------0-------------------------------------|

e--------------------0--0h1----------------0--0------------|
B----3--3--4p3----1--3---------1-1----1--1-3---------------|
G----0--0------------0---------2-2----2----0---------------|
D-------x------------x---------2-2----2----x---------------|
A---------------------------0----x--0-x--------------------|
E-0------------0-------------------------------------------|


e--------------------0--0---------0-----0-----0------------|
B----3---1--1--------1---------3--3-----3-----3------------|
G----0---0-------2---2---------0--0-----0-----0------------|
D--------x-----------x------------x-----x-----x------------|
A----------------------------------------------------------|
E-1------------1-----------3---------3-----3---------------|


CHORUS AGAIN.. (8TH FRET)

REPEAT THAT EXCEPT THIS PART.

3:40- 3:42

e--3S5-3-1P0-1-1P0---------------------------------------|
B------------------3-1--0--------------------------------|
G-----------------------0--------------------------------|
D--------------------------------------------------------|
A--------------------------------------------------------|
E-----------------------0--------------------------------|


INTRO AGAIN, THEN..


PAG IBIG KO'Y IKAW..


e-0----------------------------------------------------|
B-0--3--1-0--1-----------------------------------------|
G-0----------0-----------------------------------------|
D------------2-----------------------------------------|
A------------3-----------------------------------------|
E-3----------------------------------------------------|

THAT'S ALL! PAG MAY TANONG KAYO SAKIN MAG PM LANG KAYO SA
FB KO. MAGREREPLY NAMAN AKO. :) GODBLESS EVERYONE!!


11:00AM-1:13PM

SATURDAY, OCTOBER 18, 2014
Добавлено: 28.07.2015
Другие материалы по этой песне:
  • Аккорды и текст

Страница создана 28.07.2015
http://primanota.ru/jorell-prospero/ikaw-chords.htm
Привет, Гость.
Предлагаем пройти революционный курс по гитаре.
Подарок от PrimaNota.Ru, забирай!