PrimaNota.ru - самый крупный в мире бесплатный архив песенных текстов, аккордов, табулатур и нот


Jorell Prospero - Especially For You - таба, видео

Регистрация Запомнить меня
Войти через:  Facebook Google Twitter Vk Yandex Mail.ru

Jorell Prospero - Especially For You - таба, видео

Печатать
Просмотров: 115
MYMP - Especially For You (Arranged by Jorell Prospero)


TUNING: EADGBe (Standard)

"If you will use my own arrangement, dont forget to put credits."


INTRO/VERSE

e-T-----------1--1-0----T---T----------T-----0-----T---------------|
B-A-----3--------3----3-A-1-A--1-----1-A--1----1---A------1--------|
G-P-----3--------3------P---P--------2-P--2------2-P----2----------|
D-T---------------------T---T--------3-T-----------T---------------|
A-A--0--3--T-----3------A---A----------A-----------A---------------|
E-P---------------------P---P-----1----P--1--------P--1------------|

e-------0--------------T-----T------3--T-------3------T------------|
B-3--3--3-----3--4--3--A--1--A---------A---------3----A------3-----|
G-2--2--2-----2--------P-----P---3-----P----3------3--P----3-------|
D-0-----0---0----------T-----T---------T--------------T------------|
A-------x--------------A-----A---------A--------------A------------|
E-------x--------------P-----P---3-----P----3---------P--3---------|

e-------T--------------T-----T----------T-------------T------------|
B-1--1--A-----1--3--1--A-----A-------1--A--------0--1-A------------|
G-0--0--P-----0--------P--3--P--2----2--P-----2-------P------------|
D-------T--------------T-----T----------T-------------T------------|
A-3-----A--3-----------A-----A----------A-------------A------------|
E-------P--------------P-----P-----1----P--1--0-------P------------|

e-1S3----------------------6----------T----1-1-1-T-----------------|
B-----------6--6-----6--8----6----3---A--3-------A--3---1----------|
G-----------6--6-----5------------3---P--3-------P------0----------|
D-------------------------------------T----------T-----------------|
A--------6--------0--5---------1------A----------A------3----------|
E-------------------------------------P----------P-----------------|

Especially for you...

e-T-----------1--1-0----T---T----------T-----0-----T---------------|
B-A--------------3----3-A-1-A--1-----1-A--1----1---A------1--------|
G-P--------------3------P---P--------2-P--2------2-P----2----------|
D-T---------------------T---T--------3-T-----------T---------------|
A-A--------------3------A---A----------A-----------A---------------|
E-P---------------------P---P-----1----P--1--------P--1------------|

e-------0--------------T-----T------3--T-------3------T------------|
B-3--3--3-----3--4--3--A--1--A---------A---------3----A------------|
G-2--2--2-----2--------P-----P---3-----P----3-------5-P--5---------|
D-0-----0---0----------T-----T---------T--------------T------------|
A-------x--------------A-----A---------A--------------A------------|
E-------x--------------P-----P---3-----P----3---------P------------|

e-------T--------------T-----T----------T-------------T-----T------|
B-1--1--A-----1--3--1--A-----A-------1--A--------0----A-----A------|
G-0--0--P-----0--------P--3--P--2----2--P-----2----2--P-0---P------|
D-------T--------------T-----T----------T-------------T-----T------|
A-3-----A--3-----------A-----A----------A-------------A-----A------|
E-------P--------------P-----P-----1----P--1--0-------P-----P------|

e--------------------------6----------T----------5-5--T------------|
B-----------6--6-----6--8----6-----6--A--6--6h8-------A--8--6------|
G-----------6--6-----5-------------7--P--7------------P------------|
D-------------------------------------T---------------T------------|
A---0----6--------0--5----------------A---------------A------------|
E--------------------------------6----P--6------------P------------|

No more dreaming about tomorrow..

e----------------T-----------------------------T-------------------|
B------1---------A------------------5-------6--A-----5-8-----------|
G-2-2--2------2--P------0-2---6--6--6----------P---6---------------|
D-3-3--3----3----T----3-------7--7--7-----7----T-------------------|
A------3---------A------------------7----------A-------------------|
E-1-1--1--1------P--1---------5--5--5---5------P-5-----------------|


e-----------------------T----5---------T---------------------------|
B-6--6--6-------6--6--8-A-------9----8-A-----6-----6-8-6-----------|
G-7--7--7----7----------P--------------P---7----7------------------|
D-7--7--7---------------T----------6---T---------------------------|
A-5--5--5--5----5-------A--5-----------A---------------------------|
E-------X---------------P-------6------P-6------6------------------|

e------T--------T---5--5--5--T---3--3-3-------------t---------------|
B-8-8--A--6--6--A------------A---3-------7s9--9--9--a---------------|
G------P--7--7--P------------P----------------------p---------------|
D------T--7--7--T------------T----------------------t---------------|
A------A--5-----A------------A---3----3-------------a---------------|
E-5----P--------P------5-----P----------------5-----p---------------|

e-------------------T----------3--6--5--T---------------------------|
B-6-----6-----6--6--A-------6-----------A----9-7--9-----------------|
G-7--7-----7--------P--5--5-------------P---------------------------|
D-------------------T-------------------T---------------------------|
A-5-----5-----------A--3----3-----------A--5------------------------|
E-------------3-----P-------------5-----P---------------------------|


e-6----5--T-------------T----------T--------T-----------------------|
B---------A--6----------A--1-1--1--A--1--1--A-----------------------|
G---------P-------5h7---P----2--2--P--2--2--P-----------------------|
D---------T-------------T----3--3--T--3--3--T-----------------------|
A---------A----3--------A----------A--------A-----------------------|
E---3-----P-------------P----1-----P--1-----P-----------------------|

Repeat this part.. Then..

SOLO:

e-T---------T-------0--1--0----T--0--T----0--T----0-----T------------|
B-A------3--A-----3---------3--A-----A--1----A--1---1---A-----1------|
G-P------3--P---2--------------P-----P--2----P--2-----2-P---2--------|
D-T---------T------------------T-----T-------T----------T------------|
A-A---0--3--A----------3-------A-----A-------A----------A------------|
E-P---------O------------------P-----P--1----P--1-------P-1----------|


e------------------0--2-T-3s5--------t----3------T-------------------|
B--3--3--3--3h4--3------A---------3--a--3---3----A-------------------|
G--2--2--2--------------P---------0--p--0-----0--P-------------------|
D--0-----0-------0------T------------t-----------T-------------------|
A--------X--------------A------------a-----------A-------------------|
E-----------------------P------3-----p--3--------P-------------------|

e----1-----------T-----------T-----T--------------------------------|
B----------1--1--A----1--3-1-A-----A--------------------------------|
G-------3--0--0--P----0------P--3--P--2-----------------------------|
D----------------T-----------T-----T--------------------------------|
A----------3-----A-3---------A-----A--------------------------------|
E-3--------------P-----------P-----P--------------------------------|


REPEAT VERSE AGAIN..


OUTRO:

e-10h12p10----------------------------------------------------------|
B-----------12--10--------------------------------------------------|
G------------------12--10--9--10s12---------------------------------|
D------------------------------------12+----------------------------|
A-------------------------------------------------------------------|
E-------------------------------------------------------------------|

IF YOU HAVE ANY QUESTIONS, PLEASE SEND ME A PM ON MY FACEBOOK ACCOUNT.
GOODLUCK AND GODBLESS!


-JORELL PROSPERO

6:10pm - 9:01pm (June 14, 2014)
Добавлено: 28.07.2015
Другие материалы по этой песне:
  • Аккорды и текст

Страница создана 28.07.2015
http://primanota.ru/jorell-prospero/especially-for-you-chords.htm
Привет, Гость.
Предлагаем пройти революционный курс по гитаре.
Подарок от PrimaNota.Ru, забирай!