PrimaNota.ru - самый крупный в мире бесплатный архив песенных текстов, аккордов, табулатур и нот


Jorell Prospero - Dati - таба, видео

Регистрация Запомнить меня
Войти через:  Facebook Google Twitter Vk Yandex Mail.ru

Jorell Prospero - Dati - таба, видео

Печатать
Просмотров: 42
Уроки эстрадного вокала в Санкт-Петербурге
Sam Concepcion - Dati (Arranged by Jorell Prospero)


CAPO: 3rd Fret

Tuning: Standard

INTRO:

e----------3---------------3---------------3--------------|
B--------6---6-----------6---6-----------6---6------------|
G-----5--------5-------5-------5-------5-------5----------|
D--3-------------3---3-----------3------------------------|  REPEAT THIS 2X :)
A------------------3--------------------------------------|
E-----------------------------------3-------------5-------|

VERSE:


e---------------------------------------------------------|
B---------------------------------------------------------|
G--0h2--0--0---------0h2--0-0-----------------------------|
D----------------------------------2--0-----0--0--0--0h2--|
A----------------3--------------3--------3-----------0----|
E-------------1-----------------------------3-------------|

e---------------------------------------------------------|
B---------------------------------------------------------|
G--0h2--0--0---------0h2--0-0-----------------------------|
D----------------------------------2--0-----0--0--0--0h2--|
A----------------3--------------3--------3-----------0----|
E-------------1-----------------------------3-------------|

e-----------------------------------0---------------------|
B-0h1--0---------------------3--3------3--1---------------|
G---------2----0--0--0----2-------------------------------|
D---------------------------------------------------------|
A-----------------------3--------------0------------------|
E------------1---------------3----------------------------|

e-1--0--1--1--0--1--0--------1----------------------------|
B-1--0--1--1-----------3--1-----3--1--1--3----------------|
G----------2----------------------------------------------|
D----------3----------------------------------------------|
A----------3-----3-----------0----------------------------|
E-1--------1--------------------------3-------------------|


e--3s5--3--3-------3s5--3--3----0---------------------0---|
B---------------1---------------1---3--1--3--3--1--3------|
G---------------2---------------0-------------------------|
D------------3--------------------------------------------|
A----------------------------3---------------------0------|
E-----------------------------------------3---------------|

e--8--7--5-----------------5-------0----------------------|
B--------------8--8--8--------3--3----3--1----------------|
G---------------------------------------------------------|
D---------------------------------------------------------|
A-----------8-------------------------0-------------------|
E-----------------------8-----3---------------------------|

e-1--0--1--1--0--1--0--------1--0--1--0---1---3-----------|
B-1--0--1--1-----------3--1-------------------------------|
G----------2----------------------------------------------|
D----------3----------------------------------------------|
A----------3-----3-----------0----------------------------|
E-1--------1------------------------------3---------------|


Ikaw ang kasama...

e-0--------------0----------------------------------------|
B--0----1--0--1-----3----1--------------------------------|
G---2-----------------2-----------------------------------|
D----2----------------------------------------------------|
A-----0----3----------------------------------------------|
E-------------------3-------------------------------------|

e-0-----------------------0--1-----------------------------|
B--0----1--0--1----0---3----------3--3---1---1---0---------|
G---2-----------------------------3--3---2---2---0---------|
D----2-----------------------------------2---2---0---------|
A-----0----3-----------1--------1---1------------2---------|
E------------------------------------------------3---------|


CHORUS:

e--0--0---------3---0------------------------0--------------|
B--------3---1---------3--1--1---3--3--1--3-----------------|
G------------2-------------------0--------------------------|
D------------3----------------------------------------------|
A-------------------3---------------------0-----------------|
E--------------------------------3--------------------------|

e----------------3---0------------------------0--------------|
B---------1---1---------3--1--1---3--3--1--3-----------------|
G---------2---2-------------------0--------------------------|
D---------3---3----------------------------------------------|
A--------------------3---------------------0-----------------|
E---------------------------------3--------------------------|


e-0---1---0--1--0--1---0---------0--1-0----------------------|
B-----1---0--1-------------3--1----------3---3---------------|
G--------------------------------------------0---------------|
D------------------------------------------------------------|
A------------------3-------------0---------------------------|
E-----1------------------------------------3-----------------|


e--------------0-----1--------------------------------------|
B-----1--1--3-----------3--3-3----3-------------------------|
G-0h2------------------------0----0-------------------------|
D-3---------------------------------------------------------|
A----------------3---0--------------------------------------|
E-------------------------------3---------------------------|

Da da da dati...


e---------------------------------0--------------------------|
B-----1--1--3---1-------1--1--3-----3--1---------------------|
G-0h2---------0-----0h2---------0----------------------------|
D-3----------------------------------------------------------|
A-----------3-----------------0------------------------------|
E------------------3-----------------------------------------|


e--------------------1--------------------------------------|
B------1--1--3---1-------3--3----3--------------------------|
G-0h2----------0-----------------0--------------------------|
D-3---------------------------------------------------------|
A------------3----------------------------------------------|
E--------------------3---------3----------------------------|

REPEAT VERSE.. EXCEPT FOR THIS PART: (SABAY MANONOOD NG PABORITONG PROGRAMA..)


e---------------------------------------------------------|
B-1----1--1--3--1---0-----------3--1----------------------|
G---2-----------------0----0-2----------------------------|
D-3----------------------2--------------------------------|
A-----------------3-------------0-------------------------|
E------------------------3--------------------------------|

e-0--1--0--1--1--1--0--------1--0--1--0--1--3--------------|
B----1--0--1--1--------3--1--------------------------------|
G-------------2--------------------------------------------|
D-------------3--------------------------------------------|
A-------------3--3-----------0-----------------------------|
E----1--------1--------------------------3-----------------|

REPEAT CHORUS..


THEN. RAP PART (F, C, G, Am) Yung technique na ginawa ko dun, panuorin niyo na lang yung Felicity ni 
Sungha Jung :)


Parang Julio't Julia..


e--------------0----------------------0-------------------|
B--3--3--3--3-----3--1--------3-3--3------3--1------------|
G-----------------------0--2------------------------------|
D--3------------------------------------------------------|
A-----------------3-----------------------0---------------|
E-----------------------------3---------------------------|

e----------0--1--0----------------------------------------|
B-3--3--3-----------3--1--1-0--1--0-1--3------------------|
G---------------------------------------------------------|
D-3-------------------------------------------------------|
A-------------3-----------0-------------------------------|
E-----------------------------------3---------------------|


e-1--0--1--0--1--0--------0-1-0---------------------------|
B-1--0--1-----------3--1---------3---3--1-----------------|
G------------------------------------0--0-----------------|
D---------------------------------------------------------|
A-------------3-----------0-------------------------------|
E-1----------------------------------3--------------------|

e-1--0--1--0--1--0--------1--0--1--0--1--3--|
B-1--0--1-----------3--1--------------------|
G-------------------------------------------| Tataas na yung Capo sa 4th :) Ok lang naman din kahit hindi na..
D-------------------------------------------|
A-------------3-----------0-----------------|
E-1-----------------------------------3-----|

END :)


If you have any questions, Pm niyo lang ako :)


- Jorell Prospero
Добавлено: 09.09.2015
Другие материалы по этой песне:
  • Аккорды и текст

Страница создана 09.09.2015
http://primanota.ru/jorell-prospero/dati-chords.htm
Привет, Гость.
Предлагаем пройти революционный курс по гитаре.
Подарок от PrimaNota.Ru, забирай!