PrimaNota.ru - самый крупный в мире бесплатный архив песенных текстов, аккордов, табулатур и нот


Jorell Prospero - Christmas Medley - таба, видео

Регистрация Запомнить меня
Войти через:  Facebook Google Twitter Vk Yandex Mail.ru

Jorell Prospero - Christmas Medley - таба, видео

Печатать
Просмотров: 128
Christmas Medley (Arrangement by Jorell Prospero)                          


If you will use this arrangement, please put some credits.
Paki lagay na lang kung sino yung nag aarrange. Mahirap kasi 
gumawa ng tab. 

Tuning: Standard


Hark! The Herald Angels Sing

e-----------------------0----0---------3----3---3-1--0-------0--------
B-----1----1-----0--1------------3-----------------------3------------
G-0-----0------0------0---0----0---0-----0----0-3------0---0----------
D---2--------2--------------------------------------------------------
A-3--------3--------3------------------3-------------3-------3--------
E----------------------------3---------------------------3------------

e--------------------------0---0-------3------------------------------
B-----1---1---------0--1-----------2--------3---3-----1-0-----0-------
G-0-----0---------0------2---2---2---2----0---0-----0------2----------
D---2-----------2--------------0------------------0--------0----------
A-3-------3---3--------0----------------------------------------------
E--------------------------------------3--------3-------3-----3-------

e-3---3----3-------1-------0-----------------------------------------
B---------------0-------0--------3-----------------------------------
G---0---0-----0-------0-------0--------------------------------------
D--------------------------------------------------------------------
A-3--------3------------3--------------------------------------------
E------------------3-------3-----------------------------------------

e-3---3----3-------1-------0-----------------------------------------
B---------------0-------0--------3-----------------------------------
G---0---0-----0-------0-------0--------------------------------------
D--------------------------------------------------------------------
A-3--------3------------3--------------------------------------------
E------------------3-------3-----------------------------------------

e-5-5-5--3--1----0----1-------0-1--3-----------0----------------------
B----------------2----3---3-----------1-1---3-------------------------
G-------------2----0--------0-------------0---------------------------
D-----------0---------0-----------------------------------------------
A--------3-------0-----------------3-----------3----------------------
E-1---1-------------------3-------------3-----------------------------

e-5-5-5--3--1----0----1-------0-1--3----------------------------------
B----------------2----3---3-----------1-1---3-------------------------
G-------------2----0--------0-------------0---------------------------
D-----------0---------0-----------------------------------------------
A--------3-------0-----------------3----------------------------------
E-1---1-------------------3-------------3-----------------------------




O Come All Ye Faithful


e-------------------------------------0--------0----1----0-----0------
B-1--1-----1------0-3-----------------------3----------------1--------
G--------0---0------0--------0-----------0--------0---0----0----------
D------2--------2------------0----------------------0-----------------
A----3-------3---------0-2-3---3-2-0--3-----2--3---------3------------
E-------------------3-------------------------------------------------

e--------------------------------------------0------------------------
B--3-----1-----1------1--0--------0----1---3----0-----0---------------
G----------0--------2----------2----0----0----------0----2-0-0--------
D-----0-----------2------------0------------------0------0------------
A--------------0------------2----------3---2-3-----------------0-2-3--
E--3---------------------3--------3-------------3------------3------3-


e------------------0--1-----1--0--------------0-----------------------
B-8-----8----6------------3---------0----3-------1---3--0-------------
G-----9--------7--------2---------0---0----0----------------2---0-----
D---9-----------------0-----------------------------------0-----------
A-7----------5-----3-----------3---------2----3--0--------------------
E----------------------------------------------------2--3-----3-------

e----------------------------------------------------------------------
B-1--1----0----0----3--1------1----------------------------------------
G-----------0----0----------0---0--------------------------------------
D------2------------0-----2--------------------------------------------
A----3---------3-------3--------3--------------------------------------
E---------3------------------------------------------------------------

e-0-0--------0--1--0------0--------------------------------------------
B--------3-------------------3-----------------------------------------
G-----0----0------------0----------------------------------------------
D---------------0-----0------------------------------------------------
A---3----2---3-----3---------------------------------------------------
E----------------------------3-----------------------------------------

e-0----1----0-------------------------1--0------0----------------------
B----------------3----1--0-----0--1----------------3--1----------------
G---0----0----0----0---------0------2---------0------------------------
D------0-------------------0----------------0--------------------------
A-3---------3----2----0---------------3--------------------------------
E------------------------3--------1------3---------3-------------------



Last Christmas


e--------------------0--------------0----------------------------------
B--3---3-0------3--3-----1-----3-3------1------1--0-1-0----------------
G--1-t-1---t----1--1-----0---t--------------t-----------2---2-t--------
D----a-----a-----------------a--------------a-----------------a--------
A--3-p-3---p-3--3------3--3--p-0------0---0-p-----0-------0---p--------
E----------------------------------------------------------------------


e-0----------------0h1-0-----------------------------------------------
B-3--t--3--3--t----3-----3---1--0--1--t--0--1--t--0--------------------
G-2--a--2--2--a----2------------------a--------a----0------------------
D-0--p--0-----p-0---------------------p--------p-----------------------
A----------------------------------------------------------------------
E-------------------------------3--------3--------3--------------------


e---------------------------------------------------------------
B---------------------------------------------------------------
G---------------------------------------------------------------
D--------------5------------------------------------------------
A-----3h5-5s7----7-5--------------------------------------------
E-3h5-----------------------------------------------------------

e--------------------0--------------0----------------------------------
B--3---3-0------3--3-----1-----3-3------1------1--0-1-0----------------
G--1-t-1---t----1--1-----0---t--------------t-----------2---2-t--------
D----a-----a-----------------a--------------a-----------------a--------
A--3-p-3---p-3--3------3--3--p-0------0---0-p-----0-------0---p--------
E----------------------------------------------------------------------


e-0----------------0h1-0-----------------------------------------------
B-3--t--3--3--t----3-----3---1--0--1--t--0--1--t--0--------------------
G-2--a--2--2--a----2------------------a--------a----0------------------
D-0--p--0-----p-0---------------------p--------p-----------------------
A----------------------------------------------------------------------
E-------------------------------3--------3--------3--------------------

Harmonics part:

e----------3-----------------------------------------------------------
B-------------------------------0-1--3-1-------------------------------
G-0--t--------t--0--0--t----0-2------------2-t--2---2-t----------------
D----a--------a--------a---------------------a--------a----------------
A-3--p--3-----p--3-----p--3----------0---0---p----0---p-0--------------
E----------------------------------------------------------------------

e-3--0------------------------------3s5-1----------------------------------
B-------3--1-------------------------------3-1-----------------------------
G-------------2--t--2---2--t-2-2----------------0----0---0---0-0-----------
D-------------0--a----0----a-0---0-----------------t-------t-----t---3-2-0-
A----------------p---------p-----------------------a-------a-----a---------
E-----------------------------------------------3--p---3---p-3---p-3-------


Give love on christmas day

e-------------------------------------------------------------------
B-------------------------------------------------------------------
G-----t---------t-------t-------t-----------------------------------
D-----a--2-0-0--a-------a-2-0-0-a-----------------------------------
A-3-3-p---------p-0-3-3-p-------p-0---------------------------------
E-------------------------------------------------------------------

e-------0--1--3----3s5------------5----7s8--7---7----------------------
B-------1---------------6----5-8------------8-----10-------------------
G----------------0------5-----------5-------7--------------------------
D----2-----------------------------------------------------------------
A--3----------3---------5--5------5---------7-7------------------------
E----------------------------------------------------------------------

e------5------------------3--------------------------------------------
B-8------8--6p5-----3-------4------------------------------------------
G-----------7---7-5-4--------------------------------------------------
D---5------------------------------------------------------------------
A-----------5----------------------------------------------------------
E-5-----------------3--3-----------------------------------------------

e-------0--1--3----3s5------------5----7s8--7---7----------------------
B-------1---------------6----5-8------------8-----8--------------------
G----------------0------5-----------5-------7--------------------------
D----2-----------------------------------------------------------------
A--3----------3---------5--5------5---------7-7------------------------
E----------------------------------------------------------------------

e-5------------------3-1-0--------0--1--3------------------------------
B----8-6--6----------3------3--1---------------------------------------
G---------7----7-------------------------------------------------------
D---------7--7---7-------------------0--2------------------------------
A---------5--------------------3--3------------------------------------
E-5------------------3---3---------------------------------------------

e---------------------------------------------------------------------
B-----------3-----0------3-1--0----1----------------------------------
G-2--2----------0---0-----------2--2----------------------------------
D-3------3----0--------------------2----------------------------------
A------3--------------2-------0----0----------------------------------
E-1---------3-------0--------------x----------------------------------

e-0--1--1p0-1--1p0---1-1-3s5---3---0h1--3----0h1-3----5--6------------
B----3--3---3--3-----0-----------------------------------5------------
G----2--2---2--2-----------------0---------0--------0----5------------
D----0------0---------------------------------------------------------
A------------------------------3--------3--------3-------3------------
E--------------------3-----3------------------------------------------

e-----------------------------------0-0-1-3-3s5----5--3---------------
B---------3--------0h1-----3-1--0---1---3----------3-----6------------
G-2-2----------0h2-----0----------2-2---2----------4------------------
D-3-----3---0------------2----------2---0-----------------------------
A-----3-------------------------0---0---------------------------------
E-1-------3------------0------------x-----------3---------------------

White Christmas

e------------------------------------------------------7---------------
B-5--5-------5---------6--5--4--5--6--6-----6-----7--8--8--------------
G-4--4-------4--t------5--4--3--4--5--5-----5-----6--7---9-------------
D-5-------------a------7--6--5--6--7--------------8--9-----------------
A-3-----3--3----p--3---5--4--3--4--5----5-5----5--6--7-----------------
E----------------------------------------------------------------------

e--------------------10---8h10----8------------------7-----6-------------
B-10--------10-12--------------------12--10--8----8----8----8------------
G-9---t-----9------t-----------t-------------7--t-7----------6-----------
D-10--a-----10-----a-----------a-------------9--a-9-----------8----------
A-8---p--8---------p------8----p--8----------7--p-7------------6---------
E------------------------------------------------------------------------

e------------------------------5-0---------------------------------------
B-1--3--5--5-------5--------5-------1--1-----1-------8--6----------------
G----2--4--4-------4--t-----4-------2--2-----2--t----7-------------------
D----3--5-------------a-----5-------2--2-----2--a----8-------------------
A----2--3-----3-3-----p--3----------------------p------------------------
E-----------------------------------1----1-1------1--6-------------------

e----------------------------------------0-----1------------------------
B-5---5------5-------6--5---3-----------3--3---0------------------------
G-4---4------4--t----5--4---2--1--3---0-----0--0------------------------
D-5-------------a----7--6-----------0----------0------------------------
A-3-----3-3-----p-3--5--4---3------------------2------------------------
E------------------------------2--3------------3------------------------


We Wish You a Merry Christmas


e---------------------------------0---------------0-0-1-0----------------
B----1--1--3--1-0-------------3-3---3-1--0--------0-------3--1-----------
G-0----------------2--2----2-----------------------------------2-0-0-----
D-----------------------------0-----0------0---0-------------------------
A----3-------------------------------------------------------0-----------
E------------------1-----1---------------3---3----0----------------------

e-------------------------------------------------------------------
B----3--0--1--------------------------------------------------------
G-2--------0--------------------------------------------------------
D----------2--------------------------------------------------------
A-------2--3--------------------------------------------------------
E-1--3--------------------------------------------------------------

e---------------------------------0---------------0-0-1-0----------------
B----1--1--3--1-0-------------3-3---3-1--0--------0-------3--1-----------
G-0----------------2--2----2-----------------------------------2-0-0-----
D-----------------------------0-----0------0---0-------------------------
A----3-------------------------------------------------------0-----------
E------------------1-----1---------------3---3----0----------------------

e-------------------------------------------------------------------
B----3--0--1--------------------------------------------------------
G-2--------0--------------------------------------------------------
D----------2--------------------------------------------------------
A-------2--3--------------------------------------------------------
E-1--3--------------------------------------------------------------


2:00pm-5:24pm 12/8/2014 Monday


Merry Christmas guys! If you have any questions regarding this tab,
please do send me a private message! Godbless everyone! 

Jorell Prospero
Добавлено: 28.07.2015
Другие материалы по этой песне:
  • Аккорды и текст

Страница создана 28.07.2015
http://primanota.ru/jorell-prospero/christmas-medley-chords.htm
Привет, Гость.
Предлагаем пройти революционный курс по гитаре.
Подарок от PrimaNota.Ru, забирай!