PrimaNota.ru - самый крупный в мире бесплатный архив песенных текстов, аккордов, табулатур и нот


Jorell Prospero - Chinito - таба, видео

Регистрация Запомнить меня
Войти через:  Facebook Google Twitter Vk Yandex Mail.ru

Jorell Prospero - Chinito - таба, видео

Печатать
Просмотров: 56
Yeng Constantino - Chinito (Arranged by Jorell Prospero)


Iniba ko po pala yung pagplay ko sa tutorial ko para yung mga beginners, Makasunod din.
Onti lang naman po yung iniba ko. Tinanggal ko lang yung STRUM at yung PALM MUTE.

Kung gagamitin niyo man po ang arrangement ko, Palagyan ng "CREDITS".


TUNING: DADGBe


CAPO (2ND FRET)

e-----0----------------------0----------------------------------------|
B-3-3---3----------------3-----3--------------------------------------|
G----------2--2-2-2-2-2-----------2-2-2-2-2-2-0-------0-0-------------|
D---------0-0--0-0-0-0-0---0-----0-0-0-0-0-0----4-4-4-----------------|
A------------------------------2----2---2---2-------------------------|
D-------0-----0-----0----0--------------------------2---2-------------|

e-------------------------------------------------------------------|
B-------------------------------------------------------------------|
G--2-0------0-------------------------------------------------------|
D------4-4-4-2------------------------------------------------------|
A------------0------------------------------------------------------|
D--2-------2--------------------------------------------------------|

e-----0----------------------0---------------------------------------------------|
B-3-3---3----------------3-----3---3h5---------------------------3-3-3--2-2-2----|
G----------2--2-2-2-2-2----------2-----2-0-------0---2-2-2---2-2--------------2--|
D---------0-0--0-0-0-0-0---0---------------4-4-4---2--------2-2------------------|
A------------------------------2---2---2-------------------0-----------0----0----|
D-------0-----0-----0----0---------------------2---2-----------------------------|


BALANG ARAW PART..

e----------0-------2-2-2-----3--0-----0h2-0------0----------------------|
B------------3----------------------3------------0----------------------|
G----2-2-2-------0---------0------------------2--2----------------------|
D---0----------------------------------------2-2-2----------------------|
A--------------2----------------------------0----0----------------------|
D--4-----4---------------2--------2-------------------------------------|


CHORUS..

e-----0-2-3-2--------0--------------------0-------------------------------|
B-3-3---0-0-0-3-0----0---2-2-3-5------------3-----------------------------|
G-------0-----0-0----------------2-2-0-2----------------------------------|
D-----------------0----------------------0--------------------------------|
A-------------------------------------------------------------------------|
D-------5-------5--------------4-------4----4-----------------------------|


e-------------2-0---------0---0--2-3---5--2-------------------------------|
B-0-2-3-2-3--------3-2--3---3----------5--2-------------------------------|
G------------------2-2----------------------------------------------------|
D-------------------------------------------------------------------------|
A------------------------------------0----0-------------------------------|
D-----2-----2-----4--4----2---2-------------------------------------------|

e-----0-2-3-2--------0--------------------0-------------------------------|
B-3-3---0-0-0-3-0----0---2-2-3-5------------3-----------------------------|
G-------0-----0-0----------------2-2-0-2----------------------------------|
D-----------------0----------------------0--------------------------------|
A-------------------------------------------------------------------------|
D-------5-------5--------------4-------4----4-----------------------------|

e-------------2-0---------------------------------------------------------|
B-0-2-3-2-3--------3-2-3-3-------3-5-5-----5------------------------------|
G------------------2-2-2-2----0---------2--2------------------------------|
D----------------------------0-0-------2-2-2------------------------------|
A-------------------------------------0----0------------------------------|
D-----2-----2-----4--4-----2-----2----------------------------------------|

e----------------0--------------------------------------------------------|
B--5-5---3-3-3-3---2---------------------2--------------------------------|
G--------0-0-0-0-------2-2-2-2-2-2--0-0--2--------------------------------|
D----------------------0-0-0-0-0-0--2-2--2--------------------------------|
A----------------------------------------0--------------------------------|
D------5---5-5-5-----4---4-4-4-4-4--2-2-----------------------------------|

BACK TO VERSE, SAME ULIT PO YUN.. TAS CHORUS.. THEN ETO NA YUNG

SOLO PART..


e----------------0-------------------0---0-------------------2-------------|
B--5-5---3-3-3-3---2---------------3---3---3-3--2--2-2-3-3-3-2-------------|
G--------0-0-0-0-------2-2-2-2-2-2---------------------------2-------------|
D----------------------0-0-0-0-0-0-----------------------------------------|
A------------------------------------------------------------0-------------|
D------5---5-5-5-----4---4-----4-4-------2------4------2-------------------|

BALIK CHORUS PO ULIT.. :)


YUN LANG!sANA NAGETS NIYO :) PAKI LIKE NA LANG PO YUNG PAGE KO SA FACEBOOK! GODBLESS!


www.facebook.com/officialjorellprospero


fb: www.facebook.com/jorell.prospero
Добавлено: 09.09.2015
Другие материалы по этой песне:
  • Аккорды и текст

Страница создана 09.09.2015
http://primanota.ru/jorell-prospero/chinito-chords.htm
Привет, Гость.
Предлагаем пройти революционный курс по гитаре.
Подарок от PrimaNota.Ru, забирай!