PrimaNota.ru - самый крупный в мире бесплатный архив песенных текстов, аккордов, табулатур и нот


Jordan Sweeto - Drown Out - таба, видео

Регистрация Запомнить меня
Войти через:  Facebook Google Twitter Vk Yandex Mail.ru

Jordan Sweeto - Drown Out - таба, видео

Печатать
Просмотров: 52
This is my first time ever tabbing anything so any feedback is appreciate <3

Tuning: Standard

e|---------------------------------------------------------------------------|
B|---------------------------------------------------------------------------|
G|------2-2--7-7--7-7--7--7----11-11--9-9--7-7--7-7--7--7--------------------|
D|-4-4--2-2--7-7--7-7--7--7----11-11--9-9--7-7--7-7--7--7--------------------|
A|-4-4--0-0--5-5--5-5--5--5----9--9---7-7--5-5--5-5--5--5--------------------|
E|-2-2-----------------------------------------------------------------------|

e|---------------------------------------------------------------------------|
B|---------------------------------------------------------------------------|
G|------2-2--7-7--7-7--7--7----11-11--9-9--7-7--7-7--7--7--------------------|
D|-4-4--2-2--7-7--7-7--7--7----11-11--9-9--7-7--7-7--7--7--------------------|
A|-4-4--0-0--5-5--5-5--5--5----9--9---7-7--5-5--5-5--5--5--------------------|
E|-2-2-----------------------------------------------------------------------|

e|---------------------------------------------------------------------------|
B|---------------------------------------------------------------------------|
G|------2-2--7-7--7-7--7--7----11-11--9-9--7-7--7-7--7--7--------------------|
D|-4-4--2-2--7-7--7-7--7--7----11-11--9-9--7-7--7-7--7--7--------------------|
A|-4-4--0-0--5-5--5-5--5--5----9--9---7-7--5-5--5-5--5--5--------------------|
E|-2-2-----------------------------------------------------------------------|

e|---------------------------------------------------------------------------|
B|---------------------------------------------------------------------------|
G|------2-2--7-7--7-7--7--7----11-11--9-9--7-7--7-7--7--7--------------------|
D|-4-4--2-2--7-7--7-7--7--7----11-11--9-9--7-7--7-7--7--7--------------------|
A|-4-4--0-0--5-5--5-5--5--5----9--9---7-7--5-5--5-5--5--5--------------------|
E|-2-2-----------------------------------------------------------------------|

e|---------------------------------------------------------------------------|
B|---------------------------------------------------------------------------|
G|------2-2--7-7--7-7--7--7----11-11--9-9--7-7--7-7--7--7--------------------|
D|-4-4--2-2--7-7--7-7--7--7----11-11--9-9--7-7--7-7--7--7--------------------|
A|-4-4--0-0--5-5--5-5--5--5----9--9---7-7--5-5--5-5--5--5--------------------|
E|-2-2-----------------------------------------------------------------------| 
Добавлено: 14.04.2016
Другие материалы по этой песне:
  • Аккорды и текст

Страница создана 14.04.2016
http://primanota.ru/jordan-sweeto/drown-out-chords.htm
Привет, Гость.
Предлагаем пройти революционный курс по гитаре.
Подарок от PrimaNota.Ru, забирай!