PrimaNota.ru - самый крупный в мире бесплатный архив песенных текстов, аккордов, табулатур и нот


Jordan Sweeto - Dont Forget - таба, видео

Регистрация Запомнить меня
Войти через:  Facebook Google Twitter Vk Yandex Mail.ru

Jordan Sweeto - Dont Forget - таба, видео

Печатать
Просмотров: 48
So far i only have the intro down, if i manage to work out or am bothered to do the rest of the song I will

Tuning: Standard

e|---------------------------------------------------------------------------|
B|---------------------------------------------------------------------------|
G|-----------------------------7---7-7---7---5---5-5---5---------------------|
D|-5---5-5---5---2---2-2---2---7---7-7---7---5---5-5---5---------------------|
A|-5---5-5---5---2---2-2---2---5---5-5---5---3---3-3---3---------------------|
E|-3---3-3---3---0---0-0---0-------------------------------------------------|

e|---------------------------------------------------------------------------|
B|---------------------------------------------------------------------------|
G|-----------------------------7---7-7---7---5---5-5---5---------------------|
D|-5---5-5---5---2---2-2---2---7---7-7---7---5---5-5---5---------------------|
A|-5---5-5---5---2---2-2---2---5---5-5---5---3---3-3---3---------------------|
E|-3---3-3---3---0---0-0---0-------------------------------------------------|
Добавлено: 14.04.2016
Вам также может быть интересно:
Другие материалы по этой песне:
  • Аккорды и текст

Страница создана 14.04.2016
http://primanota.ru/jordan-sweeto/dont-forget-chords.htm
Привет, Гость.
Предлагаем пройти революционный курс по гитаре.
Подарок от PrimaNota.Ru, забирай!