PrimaNota.ru - самый крупный в мире бесплатный архив песенных текстов, аккордов, табулатур и нот


Jordan Indiana Gonzalez - Starship - таба, видео

Регистрация Запомнить меня
Войти через:  Facebook Google Twitter Vk Yandex Mail.ru

Jordan Indiana Gonzalez - Starship - таба, видео

Печатать
Просмотров: 35
Jordan tends to play in half step down tuning but it isn't necessary in this piece since 
he is using capo on the
first fret. If you are playing through the entire Everything EP, I would recommend using 
a capo and tuning down
half a step.
Key of C

Intro/Interlude/Verse/Bridge:
e|----------------------------------------------------------|
B|----1--1----1-----1--1----1----1---1----1-----1--1---1----|
G|----0--0----0-----0--0----0----0---0----0-----0--0---0----|
D|----------------------------------------------------------|
A|--3-3--3--3-3-3-3-3--3--3-3-3-----------------------------|
E|------------------------------1-1--1--1-1-1-1-1--1--1-1-1-|

[Intro X2]

[Verse 1]
I'm writing you a simple melody, in hopes that when you hear it you sing along with me.
The sound of your voice carrying the tomb, puts me on a star ship soaring straight to 
the moon,

Pre-Chorus:
e|------------------------------------------------------------------------------------------------------------|
B|----1--1----1-----1--1----1-----1--1----1-----1--1--1-------1--1----1-----1--1----1-----1--1----1-----1--1--|
G|----0--0----0-----0--0----0-----0--0----0-----0--0--0-------0--0----0-----0--0----0-----0--0----0-----0--0--|
D|------------------------------------------------------------------------------------------------------------|
A|----------------------------------------------------------3-3--3--3-3-3-2-2--2--2-2-2-----------------------|
E|--3-3--3--3-3-3-3-3--3--3-3-3-1-1--1--1-1-1-1-1--1--1-1-1-----------------------------1-1--1--1-1-1-1-1--1--|

e|----------------------------------|
B|--1-----1--1----1-----1--1----1---|
G|--0-----4--4----4-----4--4----4---|
D|----------------------------------|
A|----------------------------------|
E|1-1-1-3-3--3--3-3-3-3-3--3--3-3-3-|

[Pre-Chorus]
The stars are aloud tonight, as I stare into the sky.
And I wonder how I ever, made you mine.

[Chorus]
    C          Cmaj13               F
The universe cannot compare to your beauty.
        C               Cmaj13      F
Not a single light can take my eyes from you.
    C         Cmaj13    Amin  Cmaj13
The world can be such a scary place,
   C               G
so let's get on my star ship and fly away.

[Interlude X2]

[Verse 2]
And the spark that's seen within your eyes, burns even brighter with each passing night.
And I'd do anything to hold your hand, and explore every galaxy as your man.

[Pre-Chorus, Chorus, Interlude X2]

[Bridge]
I'm writing you a simple melody, in hopes that when you hear it you'll sing...

[Chorus]
Добавлено: 12.11.2015
Другие материалы по этой песне:
  • Аккорды и текст

Страница создана 12.11.2015
http://primanota.ru/jordan-indiana-gonzalez/starship-chords.htm
Привет, Гость.
Предлагаем пройти революционный курс по гитаре.
Подарок от PrimaNota.Ru, забирай!