PrimaNota.ru - самый крупный в мире бесплатный архив песенных текстов, аккордов, табулатур и нот


Jordan Holm - Untitled - таба, видео

Регистрация Запомнить меня
Войти через:  Facebook Google Twitter Vk Yandex Mail.ru

Jordan Holm - Untitled - таба, видео

Печатать
Просмотров: 157
Уроки эстрадного вокала в Санкт-Петербурге
-------------------------------------------------------------------------------
                             SONG NAME - Band Name
-------------------------------------------------------------------------------
Tabbed by:
E-mail:

Tuning: Standard

Intro                               x2
e|-----------------|-----------------|
e|-----------------|-----------------|
B|-----------------|-----------------|
G|---------9-9-9-9-|-7-7-7-7---------|
D|-8-8-8-8-9-9-9-9-|-7-7-7-7-7-7-7-7-|
A|-8-8-8-8-7-7-7-7-|-5-5-5-5-8-8-8-8-|
E|-6-6-6-6---------|---------6-6-6-6-|

verse                      x2
e|-------|-----|------|-----|
B|-------|-----|------|-----|
G|-------|-----|------|-----|
D|-------|-----|-8----|-----|
A|-------|-----|------|-----|
E|-6-----|-----|-6----|-----|

Pre-Chorus                      x3
e|---------------|-------------|------|------|
B|---------------|-------------|------|------|
G|---------------|9--9-9-6--6-6|------|------|
D|-8--8-8-8--8-8-|9--9-9-6--6-6|-4----|-5----|
A|-8--8-8-8--8-8-|7--7-7-4--4-4|-4----|-5----|
E|-6--6-6-6--6-6-|-------------|-2----|-3----|

Chorus                         x4
e|---------------|--------------|------|------|
B|---------------|--------------|------|------|
G|---------------|-4--4-4-------|------|------|
D|-8--8-8-2--2-2-|-4--4-4-6--6-6|-4----|-5----|
A|-8--8-8-2--2-2-|-2--2-2-6--6-6|-4----|-5----|
E|-6--6-6-0--0-0-|--------4--4-4|-2----|-3----|

Solo                                x4
e|-----------------|-----------------|
B|-----------------|-----------------|
G|---------9-9-9-9-|-7-7-7-7---------|
D|-8-8-8-8-9-9-9-9-|-7-7-7-7-8-8-8-8-|
A|-8-8-8-8-7-7-7-7-|-5-5-5-5-8-8-8-8-|
E|-6-6-6-6---------|---------6-6-6-6-|

Intro
Verse
Pre-chorus
Chorus
Intro
Verse
Pre-chorus
Chorus
Solo
Intro (x4)
Добавлено: 13.08.2015
Другие материалы по этой песне:
  • Аккорды и текст

Страница создана 13.08.2015
http://primanota.ru/jordan-holm/untitled-chords.htm
Привет, Гость.
Предлагаем пройти революционный курс по гитаре.
Подарок от PrimaNota.Ru, забирай!