PrimaNota.ru - самый крупный в мире бесплатный архив песенных текстов, аккордов, табулатур и нот


Jordaan Mason - Choir - таба, видео

Регистрация Запомнить меня
Войти через:  Facebook Google Twitter Vk Yandex Mail.ru

Jordaan Mason - Choir - таба, видео

Печатать
Просмотров: 75
-------------------------------------------------------------------------------
                             SONG NAME - Band Name
-------------------------------------------------------------------------------
Tabbed by:
E-mail:

Tuning: Standard

Repeat this throughout the song

e|---------------------------------------------------------------------------|
B|-----------3-----------3--------------------3-----------3------------------|
G|-------4-----------4------------4-------4-----------4-----------4----------|
D|---------------------------------------------------------------------------|
A|---0-----------0------------0-------0-----------0-----------0--------------|
E|---------------------------------------------------------------------------|

e|---------------------------------------------------------------------------|
B|-----------3-----------3--------------------3-----------3------------------|
G|-------4-----------4------------4-------4-----------4-----------4----------|
D|---0-----------0------------0-------0-----------0-----------0--------------|
A|---------------------------------------------------------------------------|
E|---------------------------------------------------------------------------|


                     Lyrics
cancelling sex plans, moving through rooms like an animal 
failing to remember what the hell my body felt like before 
spitting up in the sink and sunk and stuck and shit we say we saw 
tuck a flashlight in my pants, i close my eyes, and then the light is gone 

just because we don't have a choir doesn't mean we need to be quiet
Добавлено: 03.09.2015
Другие материалы по этой песне:
  • Аккорды и текст

Страница создана 03.09.2015
http://primanota.ru/jordaan-mason/choir-chords.htm
Привет, Гость.
Предлагаем пройти революционный курс по гитаре.
Подарок от PrimaNota.Ru, забирай!