PrimaNota.ru - самый крупный в мире бесплатный архив песенных текстов, аккордов, табулатур и нот


Jordaan Mason And The Horse Museum - Is Water - аккорды и текст, видео

Регистрация Запомнить меня
Войти через:  Facebook Google Twitter Vk Yandex Mail.ru

Jordaan Mason And The Horse Museum - Is Water - аккорды и текст, видео

Печатать
Просмотров: 74
Is Water
Jordaan Mason And The Horse Museum
-------------------------------------------------------------------------------
             _____ is water - Jordaan Mason and the Horse Museum
-------------------------------------------------------------------------------
Tabbed by:
E-mail:

Tuning: Standard
Capo: Third Fret

Chords
           Em7       Cadd9
e|----------0----------0-------------------|
B|----------3----------3-------------------|
G|----------0----------0-------------------|
D|----------2----------2-------------------|
A|----------2----------3-------------------|
E|----------0----------x-------------------|

Em7                                                    Cadd9
made myself a map of folds to fuck and feel and feign as meat
    Em7                                                       Cadd9 
and all my bronze is breathing, blind painting, my body's a disease
     Em7                                                         Cadd9 
your closet's full of dead birds, the stables in your mouth are awake 
Em7                                                  Cadd9
all my weight is wet, the wallpaper is coming off my face 

Em7
pull all the whales out of me pull all the whales out of me
Cadd9
pull all the whales out of me pull all the whales out of me
x2

      This part, 'did you know' and 'i ate all the rivers' are primarily played on lower strings
Em7
did you know
Cadd9
did you know

Em7           Cadd9
i ate all the rivers?    x4

         The last part is played as follows, played instrumental once then with the lyrics

     all of me is water
e|---------------------------------------------------------------------------|
B|---5-----5-----5-----5-----3-----3-----3-----3-----------------------------|
G|------0-----0-----0-----0-----0-----0-----0-----0--------------------------|
D|---------------------------------------------------------------------------|
A|---------------------------------------------------------------------------|
E|---------------------------------------------------------------------------|
     and so are you?
e|---------------------------------------------------------------------------|
B|---5-------5-------5-------5-------0-------0-------0-------0---------------|
G|-------5-------5-------5-------5-------0-------0-------0-------0-----------|
D|---------------------------------------------------------------------------|
A|---------------------------------------------------------------------------|
E|---------------------------------------------------------------------------|
 

         And then the outro played twice

e|---------------7-----------------------5-----------------------------------|
B|---5-----5-----------5-----3-----3-----------3-----------------------------|
G|------0-----0-----0-----0-----0-----0-----0-----0--------------------------|
D|---------------------------------------------------------------------------|
A|---------------------------------------------------------------------------|
E|---------------------------------------------------------------------------|
     
e|---------------------------------------------------------------------------|
B|---5-----5-----5-----5-----0-----0-----0-----0-----------------------------|
G|------5-----5-----5-----5-----0-----0-----0-----0--------------------------|
D|---------------------------------------------------------------------------|
A|---------------------------------------------------------------------------|
E|---------------------------------------------------------------------------|
Добавлено: 06.11.2015
Другие материалы по этой песне:
  • Аккорды и текст

Страница создана 06.11.2015
http://primanota.ru/jordaan-mason-and-the-horse-museum/is-water-chords.htm
Привет, Гость.
Предлагаем пройти революционный курс по гитаре.
Подарок от PrimaNota.Ru, забирай!