PrimaNota.ru - самый крупный в мире бесплатный архив песенных текстов, аккордов, табулатур и нот


Jordaan Mason And The Horse Museum - Birds Nest - таба, видео

Регистрация Запомнить меня
Войти через:  Facebook Google Twitter Vk Yandex Mail.ru

Jordaan Mason And The Horse Museum - Birds Nest - таба, видео

Печатать
Просмотров: 65
-------------------------------------------------------------------------------
             Bird's Nest - Jordaan Mason and the Horse Museum
-------------------------------------------------------------------------------
Tabbed by:
E-mail:

Tuning: Standard
Capo: Third Fret

This is the acoustic guitar repeating through the song

e|---------------------------------------------------------------------------|
B|---------------------------------------------------------------------------|
G|---------------------------------------------------------------------------|
D|------------2-----------2-----------2-----------2--------------------------|
A|------2-----------2-----------2-----------2--------------------------------|
E|---0-----0-----0-----0-----0-----0-----0-----0-----------------------------|

e|---------------------------------------------------------------------------|
B|---------------------------------------------------------------------------|
G|---------------------------------------------------------------------------|
D|------------2-----------2-----------2-----------2--------------------------|
A|------2-----------2-----------2-----------2--------------------------------|
E|---3-----3-----3-----3-----3-----3-----3-----3-----------------------------|


The piano chords in the intro can be played like this with capo 3

           Gm          Bb
e|----------x----------x-----------------------------------------------------|
B|----------0----------0-----------------------------------------------------|
G|----------0----------0-----------------------------------------------------|
D|----------2----------0-----------------------------------------------------|
A|----------x----------x-----------------------------------------------------|
E|----------x----------x-----------------------------------------------------|
Добавлено: 06.11.2015
Другие материалы по этой песне:
  • Аккорды и текст

Страница создана 06.11.2015
http://primanota.ru/jordaan-mason-and-the-horse-museum/birds-nest-chords.htm
Привет, Гость.
Предлагаем пройти революционный курс по гитаре.
Подарок от PrimaNota.Ru, забирай!