PrimaNota.ru - самый крупный в мире бесплатный архив песенных текстов, аккордов, табулатур и нот


Joose Keskitalo - Saimaan Rannalla - таба, видео

Регистрация Запомнить меня
Войти через:  Facebook Google Twitter Vk Yandex Mail.ru

Joose Keskitalo - Saimaan Rannalla - таба, видео

Печатать
Просмотров: 87
Уроки эстрадного вокала в Санкт-Петербурге
-------------------------------------------------------------------------------
                    Joose Keskitalo - Saimaan Rannalla
-------------------------------------------------------------------------------
http://www.myspace.com/joosekeskitalo

Tabbed by: tofso, September 2012

Tuning: EADGBe; CAPO I
shuffle-rytmi/shuffle rhythm

Melko helppo kipale, samoja kuvioita eestaas pienten muutosten kera.
A fairly easy song, just the same patterns over and over with a few variations.

Alkusoitto/Intro
e|--------------------------------|
B|--1---1---1---1---1---1---1---1-|
G|--------------------------------|
D|--------------------------------|
A|3---3-------3---3---3-------3---|
E|--------------------------------|
  1 + 2 + 3 + 4 + 1 + 2 + 3 + 4 +

e|--0-------------------------------0-----------------------------|
B|3-----3-----------1---1---1---3-------3-----------------------3-|
G|----------0---0h2-------------------------2---0---0---0---0-----|
D|----------------------------------------------------------------|
A|----3---3---0---0---0---0---0---0---0---0---0---3---3---3---3---|
E|----------------------------------------------------------------|
  1 + 2 + 3 + 4 + 1 + 2 + 3 + 4 + 1 + 2 + 3 + 4 + 1 + 2 + 3 + 4 +

e|--0---------------------------3---0---------------------------3-|
B|------3-----------1---1---1-----------3---1---0h1-1---1---1-----|
G|----------0---0h2-2---2---2-------------------0-----------------|
D|----------------------------------------------------------------|
A|3---3---3---0---0---0---0---0---0---0---0---0---3---3---3---3---|
E|----------------------------------------------------------------|
  1 + 2 + 3 + 4 + 1 + 2 + 3 + 4 + 1 + 2 + 3 + 4 + 1 + 2 + 3 + 4 +

Humina/Vocal-part
e|--3---3---3-------------------3---3---3---3-------------------3-|
B|--------------1px-----1---1-------------------0h1-1---1---1-----|
G|--------------0-------------------------------------------------|
D|----------------------------------------------------------------|
A|3---3---3---3---0---0---0---0---0---0---0---0---3---3---3---3---|
E|----------------------------------------------------------------|
  1 + 2 + 3 + 4 + 1 + 2 + 3 + 4 + 1 + 2 + 3 + 4 + 1 + 2 + 3 + 4 +

e|--3---3---3-------------------3---3---3---3---------------------|
B|--------------1px-----1---1-------------------0h1-1---1---1---3-|
G|----------------------------------------------------------------|
D|----------------------------------------------------------------|
A|3---3---3---3---0---0---0---0---0---0---0---0---3---3---3---3---|
E|----------------------------------------------------------------|
  1 + 2 + 3 + 4 + 1 + 2 + 3 + 4 + 1 + 2 + 3 + 4 + 1 + 2 + 3 + 4 +
                                                                Sa-
1. "säkeistö"*/Verse 1
e|--0-------------------0-----------0-----------------------------|
B|------3---1---1---1-------1---3-------3---1-0h1---1---1---1---3-|
G|----------------------------------------------------------------|
D|----------------------------------------------------------------|
A|3---3---3---0---0---0---0---0---0---0---0---0---3---3---3---3---|
E|----------------------------------------------------------------|
  1 + 2 + 3 + 4 + 1 + 2 + 3 + 4 + 1 + 2 + 3 + 4 + 1 + 2 + 3 + 4 +
   tuin kerran näkemään         pienen  venoisen               hy-

e|--0---------------------------3---0-----------------------------|
B|------3---1---0h1-1---1---1-----------3---1---0---1---1---1---3-|
G|----------------------------------------------------------------|
D|--------------------------------------------------------------0-|
A|3---3---3---0---0---0---0---0---0---0---0---0-------3---3---3---|
E|----------------------------------------------------------------|
  1 + 2 + 3 + 4 + 1 + 2 + 3 + 4 + 1 + 2 + 3 + 4 + 1 + 2 + 3 + 4 +
   lät-ty- nä   ran-nal-la      Saimaan aalloille

1. välisoitto/Interlude 1
e|--0-------------------------------0-----------------------------|
B|------3p1---------1---1---1---3-------3-----------------------3-|
G|----------0---0h2-------------------------2---0---0---0---0-----|
D|----------------------------------------------------------------|
A|3---3---3---0---0---0---0---0---0---0---0---0---3---3---3---3---|
E|----------------------------------------------------------------|
  1 + 2 + 3 + 4 + 1 + 2 + 3 + 4 + 1 + 2 + 3 + 4 + 1 + 2 + 3 + 4 +

e|--0---------------------------3p0-0-----------------------------|
B|------3-----------1---1---1-----------3-------0h1-1---1---1---3-|
G|----------0---0h2-------------------------2---0-----------------|
D|----------------------------------------------------------------|
A|3---3---3---0---0---0---0---0---0---0---0---0---3---3---3---3---|
E|----------------------------------------------------------------|
  1 + 2 + 3 + 4 + 1 + 2 + 3 + 4 + 1 + 2 + 3 + 4 + 1 + 2 + 3 + 4 +
                                                             1. Mi-
                                                             2. Si-
2. "säkeistö"/Verse 2
e|--0-------------------------------0-----------------------------|
B|------3---0h1-1---1---1---1---3-------3---1---0---1---1---1---3-|
G|----------------------------------------------------------------|
D|----------------------------------------------------------------|
A|3---3---3---0---0---0---0---0---0---0---0---0---3---3---3---3---|
E|----------------------------------------------------------------|
  1 + 2 + 3 + 4 + 1 + 2 + 3 + 4 + 1 + 2 + 3 + 4 + 1 + 2 + 3 + 4 +
   tä   it- ket venoinen        puinen pur-teni                val-

e|--0---------------------------3---0-----------------------------|
B|------3---1---0h1-1---1---1-----------3---1---0---1---1---1---3-|
G|----------------------------------------------------------------|
D|--------------------------------------------------------------0-|
A|3---3---3---0---0---0---0---0---0---0---0---0---3---3---3---3---|
E|----------------------------------------------------------------|
  1 + 2 + 3 + 4 + 1 + 2 + 3 + 4 + 1 + 2 + 3 + 4 + 1 + 2 + 3 + 4 +
    ko-pur-jeinen              Sai-maan rannalla

2. välisoitto (sama kuin 1. välisoitto)/Interlude 2 (same as Interlude 1)

3. "säkeistö"/Verse 3
e|--0-------------------------------0-----------------------------|
B|------3---1---0h1-1---1---1---3-------3---1---0---1---1---1---3-|
G|----------------------------------------------0---0-------------|
D|----------------------------------------------------------------|
A|3---3---3---0---0---0---0---0---0---0---0---0---3---3---3---3---|
E|----------------------------------------------------------------|
  1 + 2 + 3 + 4 + 1 + 2 + 3 + 4 + 1 + 2 + 3 + 4 + 1 + 2 + 3 + 4 +
    tä  it-ken  poloinen kun... viejää  vesille                 si-

e|--0---------------------------3---0-----------------------------|
B|------3---1---1---1---1---1-----------3---1---0h1-1---1---1---3-|
G|----------------------------------------------------------------|
D|----------------------------------------------------------------|
A|3---3---3---0---0---0---0---0---0---0---0---0---3---3---3---3---|
E|----------------------------------------------------------------|
  1 + 2 + 3 + 4 + 1 + 2 + 3 + 4 + 1 + 2 + 3 + 4 + 1 + 2 + 3 + 4 +
    ni-sel-le   Saimaalle       selvi-lle selille              Mie-

e|--0-------------------------------0-----------------------------|
B|------3---1---1---1---1---1---1-3-----3---1---0h1-1---1---1---3-|
G|----------------------------------------------------------------|
D|----------------------------------------------------------------|
A|3---3---3---0---0---0---0---0---0---0---0---0---3---3---3---3---|
E|----------------------------------------------------------------|
  1 + 2 + 3 + 4 + 1 + 2 + 3 + 4 + 1 + 2 + 3 + 4 + 1 + 2 + 3 + 4 +
  lmmin hnkana kankaal- la   kuin mrhtia rannalla             Mie-

e|--0-----------------------------3-0-----------------------------|
B|------3---1---1---1---1---1---1-------3---1---0h1-1---1---1---3-|
G|----------------------------------------------------------------|
D|----------------------------------------------------------------|
A|3---3---3---0---0---0---0---0---0---0---0---0---3---3---3---3---|
E|----------------------------------------------------------------|
  1 + 2 + 3 + 4 + 1 + 2 + 3 + 4 + 1 + 2 + 3 + 4 + 1 + 2 + 3 + 4 +
  lmmin sau- nahirtenä       kuin yksin Saimaalla

3. välisoitto/Interlude 3
e|--0-------------------------------0-----------------------------|
B|------3-----------1---1---1---3-------3p1---------------------3-|
G|----------0---0h2-------------------------2---0---0---0---0-----|
D|----------------------------------------------------------------|
A|3---3---3---0---0---0---0---0---0---0---0---0---3---3---3---3---|
E|----------------------------------------------------------------|
  1 + 2 + 3 + 4 + 1 + 2 + 3 + 4 + 1 + 2 + 3 + 4 + 1 + 2 + 3 + 4 +

e|--0---------------------------3p0-0-----------------------------|
B|------3p1---------1---1---1-----------3---1---0h1-1---1---1-----|
G|----------0---0h2-2---------------------------------------------|
D|------------------------3---3---3---3---3---0---2---2---2-------|
A|3---3---3---0---0-------------------------------------------3---|
E|----------------------------------------------------------------|
  1 + 2 + 3 + 4 + 1 + 2 + 3 + 4 + 1 + 2 + 3 + 4 + 1 + 2 + 3 + 4 +

4. "säkeistö"/Verse 4
e|--0-------------------------------0-----------------------------|
B|3-----3---1---0h1-1---1---1---3-------3---1---0h1-1---1---1---3-|
G|----------0-------------------0---------------------------------|
D|--------------------3---3---3---3---3-------3-------2---2-------|
A|3---3---3---0---0-----------------------3-------3-----------3---|
E|----------------------------------------------------------------|
  1 + 2 + 3 + 4 + 1 + 2 + 3 + 4 + 1 + 2 + 3 + 4 + 1 + 2 + 3 + 4 +
  Älä   it-ke   venoinen        puinen  purteni                 val-

e|--0---------------------------3---0-----------------------------|
B|------3---1---0h1-1---1---1-----------3---1---0h1-1---1---1---3-|
G|----------------------------------------------------------------|
D|--------------------3-------------------------------------------|
A|3---3---3---0---0-----------0---0---0---0---0---3---3---3---3---|
E|----------------------------------------------------------------|
  1 + 2 + 3 + 4 + 1 + 2 + 3 + 4 + 1 + 2 + 3 + 4 + 1 + 2 + 3 + 4 +
    ko-pur-jei- nen           mnä vien sinut vesille            si-

e|--0-------------------------------0---------------------------3-|
B|------3---1---0h1-1---1---1---3-------3---1---0h1-1---1---1-----|
G|----------------------------------------------------------------|
D|----------------------------------------------------------------|
A|3---3---3---0---0---0---0---0---0---0---0---0---3---3---3---3---|
E|----------------------------------------------------------------|
  1 + 2 + 3 + 4 + 1 + 2 + 3 + 4 + 1 + 2 + 3 + 4 + 1 + 2 + 3 + 4 +
    ni-sel-le  Sai-maal-le     sel-vil-le selille              kat-

e|--0---------------------------3---0---------------------------3-|
B|------3---1---0h1-1---1---1-----------3---1---0h1-1---1---1-----|
G|----------------------------------------------------------------|
D|----------------------------------------------------------------|
A|3---3---3---0---0---0---0---0---0---0---0---0---3---3---3---3---|
E|----------------------------------------------------------------|
  1 + 2 + 3 + 4 + 1 + 2 + 3 + 4 + 1 + 2 + 3 + 4 + 1 + 2 + 3 + 4 +
   somn Svonlnnan laivoja      Lppnrannan toreja

Humina/Vocal-part
e|--3---3---3-------------------3---3---3---3-------------------3-|
B|--------------1px-----1---1-------------------0h1-----1---1-----|
G|----------------------------------------------------------------|
D|----------------------------------------------------------------|
A|3---3---3---3---0---0---0---0---0---0---0---0---3---3---3---3---|
E|----------------------------------------------------------------|
  1 + 2 + 3 + 4 + 1 + 2 + 3 + 4 + 1 + 2 + 3 + 4 + 1 + 2 + 3 + 4 +

e|------3---3-------------------3---3---3---3---------------------|
B|--------------1px-----1---1-------------------0h1-----1---1---3-|
G|----------------------0-------------------------------0---------|
D|--------------------------------------------------------------0-|
A|3---3---3---3---0---0---0---0---0---0---0---0---3---3---3---3---|
E|----------------------------------------------------------------|
  1 + 2 + 3 + 4 + 1 + 2 + 3 + 4 + 1 + 2 + 3 + 4 + 1 + 2 + 3 + 4 +

Loppusoitto/Outro
e|--0-------------------------------0-----------------------------|
B|------3-----------1---1---1---3-------3-----------------------3-|
G|----------0---0h2-------------------------2---0---0---0---0-----|
D|----------------------------------------------------------------|
A|3---3---3---0---0---0---0---0---0---0---0---0---3---3---3---3---|
E|----------------------------------------------------------------|
  1 + 2 + 3 + 4 + 1 + 2 + 3 + 4 + 1 + 2 + 3 + 4 + 1 + 2 + 3 + 4 +

e|--0---------------------------3p0-0---------------------------3p0|
B|------3-----------1---1---1-----------3p1-----0h1-1---1---1-----|
G|----------0---0h2-------------------------2---0-----------------|
D|----------------------------------------------------------------|
A|3---3---3---0---0---0---0---0---0---0---0---0---3---3---3---3---|
E|----------------------------------------------------------------|
  1 + 2 + 3 + 4 + 1 + 2 + 3 + 4 + 1 + 2 + 3 + 4 + 1 + 2 + 3 + 4 +

e|--0---------------------------3p0-0-----------------------------|
B|------3-----------1---1---1-----------3-------1---1---3---------|
G|------0---0---0h2-------------------------2---0-------0---------|
D|----------------------------------------------------------------|
A|3---3---3-------0---0---0---0---0---0---0---0---3---3-----------|
E|----------------------------------------------------------------|
  1 + 2 + 3 + 4 + 1 + 2 + 3 + 4 + 1 + 2 + 3 + 4 + 1 + 2 +

| h  hammer-on
| p  pull-off
| x  Mute note

*"Säkeistö"-sana on lainausmerkeissä,
sillä sanoituksissa on albumin sisälehtisen mukaan vain yksi säkeistö.

Satuin kerran näkemään pienen venoisen
hylättynä rannalla Saimaan aalloille
Mitä itket venoinen puinen purteni
valkopurjeinen Saimaan rannalla
Sitä itken poloinen kun ei ole viejää vesille
siniselle Saimaalle selville selille
Mieluummin honkana kankaalla kuin murehtia rannalla
Mieluummin saunahirtenä kuin yksin Saimaalla
Älä itke venoinen puinen purteni
valkopurjeinen minä vien sinut vesille
siniselle Saimaalle selville selille
katsomaan Savonlinnan laivoja Lappeenrannan toreja
Добавлено: 02.10.2013
Другие материалы по этой песне:
  • Аккорды и текст

Страница создана 02.10.2013
http://primanota.ru/joose-keskitalo/saimaan-rannalla-chords.htm
Привет, Гость.
Предлагаем пройти революционный курс по гитаре.
Подарок от PrimaNota.Ru, забирай!